Hoobastank - What Happened To Us Chords & Tabs

 

What Happened To Us Chords & Tabs

Hoobastank Chords & Tabs

Version: 1 Type: Bass Tab 0 ratings
1 star 2 stars 3 stars 4 stars 5 stars
comments

What Happened To Us Bass Tab

Band- Hoobastank
Song- What Happened To Us

Tuning: Drop D

Verse 0:28
------------------------------------------------------------------------------|
------------------------------------------------------------------------------|
------------------------------------------------------------------------------|x3
-0-0-00-0-0-0-00-0-0-0-00-0-0-0-00-0-8-8-88-8-8-8-88-8-5-5-55-5-10-10-1010-10-|

-------------------------------------------------------------------------|
-------------------------------------------------------------------------|
-------------------------------------------------------------------------|x1
-0-0-00-0-0-0-00-0-0-0-00-0-0-0-00-0-8-8-88-8-8-8-88-8-5-5-55-5-7-7-77-7-|

Chorus
---------------------------------------------|
---------------------------------------------|
---------------------------------------------|x1
-X-0-0-X-X-3/2-0-3/2-0-X-0-0-X-X-3/2-0-3/2-0-|
[ Tab from: http://www.guitartabs.cc/tabs/h/hoobastank/what_happened_to_us_btab.html ]
---------------------------------------------|
---------------------------------------------|
---------------------------------------------|x1
-5(x12)-8(x8)-10(x8)-------------------------|

Repeat Chorus

Repeat Verse

Repeat Chorus x2

After Chorus 2 let open D ring out.

Interlude
--------------------------------------------------|
--------------------------------------------------|
--------------------------------------------------|x2
-8~-8-8-8-8-10~-10-10-10-10-12~-12-12-12-12-12-12-|

-------------------------------------------|
-------------------------------------------|
-------------------------------------------|
-8~-8-8-8-8-10~-10-10-10-10-5-5-5-5-5-5-8~-|

-----------------|
-----------------|
-----------------|
-8-8-8-8-3-3-3-3-|

Repeat Chorus x2

Outro
---------------------------------------------|
---------------------------------------------|
---------------------------------------------|x2
-X-0-0-X-X-3/2-0-3/2-0-X-0-0-X-X-3-2-0-3-2-0-|
Comments