Hoobastank - Up And Gone Chords & Tabs

 

Up And Gone Chords & Tabs

Hoobastank Chords & Tabs

Version: 1 Type: Tab 0 ratings
1 star 2 stars 3 stars 4 stars 5 stars
comments

Up And Gone Tab

Ok, i've only been playing guitar 
for about a year and 1/2, and this
is my first tab, so give me a brake
if its wrong....

Since the Tabbing from guitar one 
(EBEG#BE) i've experimented 
with this tuning ^_^
And from this I've tried to learn this song, 
so far i only have
the heavy distortion parts, and i'm still 
trying to figure out the
Clean toned parts, so those are on the way! 
BTW, i looked towards the Music Vid for 
help also..
Well, here is the heavy parts for now in 
EBEG#BE Tuning!

*=harmonic
  Intro                 Pick Scrape
e|------------------------------------------|
B|------------------------------------------|
G|------------------------------------------|
E|---2-2--(bass part)--x\-------------------|
B|---2-2---------------x\-------------------|
E|---2-2---------------x\-------------------|

e|--------------------------0---------------|
B|---------------------------0--------------|
G|*---------------------------2b(1/2)------*|
E|---2-2-2-0-2--2-2-2-0-2-------------------|
B|*--2-2-2-0-2--2-2-2-0-2------------------*|
E|---2-2-2-0-2--2-2-2-0-2-------------------|

e|------------------------------------------|
B|------------------------------------------|
G|------------------------------------------|
E|--0-0-0-0-0--0-0-0-0-0-0------------------|
B|--0-0-0-0-0--0-0-0-0-0-0--*-*-*-*---------|
E|--0-0-0-0-0--0-0-0-0-0-0--3-3-3-3---------|
[ Tab from: http://www.guitartabs.cc/tabs/h/hoobastank/up_and_gone_tab.html ]
e|---------------------------------------|
B|---------------------------------------|
G|--8--8-8-8-8-8-8/11-11-11-11-11-11-11\-|
E|--7--7-7-7-7-7-7/10-10-10-10-10-10-10\-| "Have Not 
B|--5--5-5-5-5-5-5/8--8--8--8--8--8--8-\-|  Transcribed
E|--5--5-5-5-5-5-5/8--8--8--8--8--8--8-\-|  this part yet"

 Fade into Harm.
e|------|--------------------------------|
B|--*---|--------------------------------|
G|--5---|*----------------------x-2b(1/2)|
E|------|--2-2-2-0-2--2-2-2-0-2----------|
B|------|*-2-2-2-0-2--2-2-2-0-2----------|
E|------|--2-2-2-0-2--2-2-2-0-2----------|

e|---------------------------------------|
B|---------------------------------------|
G|-----------------------x-2b(1/2)-------|
E|--2-2-2-0-2--2-2-2-0-2-----------------|
B|--2-2-2-0-2--2-2-2-0-2-----------------|
E|--2-2-2-0-2--2-2-2-0-2-----------------|

e|---------------------------------------|
B|---------------------------------------|
G|---------------------------------------|
E|--0-0-0-0-0--0-0-0-0-0-0---------------|
B|--0-0-0-0-0--0-0-0-0-0-0-*-*-*-*-------|
E|--0-0-0-0-0--0-0-0-0-0-0-3-3-3-3-------|

e|----------------------------------------|
B|----------------------------------------|
G|--8--8-8-8-8-8-8/11-11-11-11-11-11-11\-*|
E|--7--7-7-7-7-7-7/10-10-10-10-10-10-10\--| 
B|--5--5-5-5-5-5-5/8--8--8--8--8--8--8-\-*| 
E|--5--5-5-5-5-5-5/8--8--8--8--8--8--8-\--|   

e|--pick-scrape---------------------------|
B|----------------------------------------|
G|----------------------------------------|
E|--2-------------------------------------|
B|--2-------------------------------------|
E|--2-------------------------------------|

Well, i hope you people get 
the idea on the rest....

I hope this helps alot! ^_^ good luck
P.S. I "will" be back with the rest of it...
(really wish they would make the tab 
space larger...)
and my e-mail addy is Frost3988@hotmail.com
 if you have any comment/questions
Comments