Hoobastank - Unaffected Chords & Tabs

 

Unaffected Chords & Tabs

Hoobastank Chords & Tabs

Version: 2 Type: Tab 0 ratings
1 star 2 stars 3 stars 4 stars 5 stars
comments

Unaffected Tab

   
-------------------------------------------------------------------------------
			     Unaffected - Hoobastank
-------------------------------------------------------------------------------
Tabbed by: Tez Matsui

Tuning: Drop D

 / = slide up
 \ = slide down
 h = hammer-on
 x = Mute note


Intro

e|--------------------------------|--------------------------------|
B|--------------------------------|--------------------------------|
G|--------------------------------|--------------------------------|
D|101010------9-9-9-101010----9-9-|------------------------5\------|
A|------7-7-7-------------7-7-----|10----10\---------5-------------|
D|--------------------------------|------------5-------------------|


e|--------------------------------|------------------3-------------|
B|--------------------------------|------------6-----------6-------|
G|--------------------------------|------------5-------------------|
D|------------2h4---2---2-2-2-----|------3-----3-------------------|
A|------2-----2-----2---2-2-2-----|------3-----3-------------------|
D|2-----------2-----2---2-2-2-0-2-|3-----------3-------------------|


Verse x2 times

e|--------------------------------|--------------------------------|
B|--------------------------------|--------------------------------|
G|--------------------------------|--------------------------------|
D|101010------9-9-9-101010----9-9-|------------------------5\------|
A|------7-7-7-------------7-7-----|10----10\---------5-------------|
D|--------------------------------|------------5-------------------|


e|--------------------------------|--------------------------------|
B|--------------------------------|------------6-------------------|
G|--------------------------------|------------5-------------------|
D|------------2h4---2---2-2-2-----|------3-----3-------------------|
A|------2-----2-----2---2-2-2-----|------3-----3-------------------|
D|2-----------2-----2---2-2-2-0-2-|3-----------3-------------------|


Bridge

e|--------------------------------|-- ---------------- -------- ------|
B|--------------------------------|-- ------8/10--1010/12--1212/181818|
G|4/5-5-5-5/7---7-7/9---9-9/10--10|10/12--12---------- -------- ------|
D|--------------------------------|-- ------5/7---7-7 /9---9-9 /151515|
A|2/3-3-3-3/5---5-5/7---7-7/8---8-|8-/10--10---------- -------- ------|
D|--------------------------------|-- ---------------- -------- ------|


Chorus x2 times

e|0-----0-0-0-0---0-0-0-0-0-0-0-0-|0-----0-------------------------|
B|1-----1-1-1-0---0-0-0-0-0-0-0-0-|1-----1-------------------------|
G|2-----2-2-2-2---2-2-2-2-2-2-2-2-|0-----0-------------------------|
D|2-----2-2-2-2---2-2-2-2-2-2-2-2-|2-----2-----5-----------5-------|
A|0-----0-0-0-0---0-0-0-0-0-0-0-0-|0-----0-----5-----------5-------|
D|--------------------------------|------------5-----------5-------|


e|--------------------------------|--------------------------------|
B|--------------------------------|------------6-------------------|
G|--------------------------------|------------5-------------------|
D|2-------2---2h4---2---2-2-------|3-----------3-------------------|
A|2-------2---2-----2---2-2-------|3-----------3-------------------|
D|2-------2---2-----2---2-2---0-2-|3-----------3-------------------|


Verse x2 times

e|--------------------------------|--------------------------------|
B|--------------------------------|--------------------------------|
G|--------------------------------|--------------------------------|
D|101010------9-9-9-101010----9-9-|------------------------5\------|
A|------7-7-7-------------7-7-----|10----10\---------5-------------|
D|--------------------------------|------------5-------------------|


e|--------------------------------|--------------------------------|
B|--------------------------------|------------6-------------------|
G|--------------------------------|------------5-------------------|
D|------------2h4---2---2-2-2-----|------3-----3-------------------|
A|------2-----2-----2---2-2-2-----|------3-----3-------------------|
D|2-----------2-----2---2-2-2-0-2-|3-----------3-------------------|


Bridge
[ Tab from: http://www.guitartabs.cc/tabs/h/hoobastank/unaffected_tab_ver_2.html ]
e|---------- -------------- ------|
B|---------- ------8/10--10/181818|
G|9/10--1010/12--12-------- ------|
D|---------- ------5/7---7 /151515|
A|7/8---8-8-/10--10-------- ------|
D|---------- -------------- ------|


Chorus x2 times

e|0-----0-0-0-0---0-0-0-0-0-0-0-0-|0-----0-------------------------|
B|1-----1-1-1-0---0-0-0-0-0-0-0-0-|1-----1-------------------------|
G|2-----2-2-2-2---2-2-2-2-2-2-2-2-|0-----0-------------------------|
D|2-----2-2-2-2---2-2-2-2-2-2-2-2-|2-----2-----5-----------5-------|
A|0-----0-0-0-0---0-0-0-0-0-0-0-0-|0-----0-----5-----------5-------|
D|--------------------------------|------------5-----------5-------|


e|--------------------------------|--------------------------------|
B|--------------------------------|------------6-------------------|
G|--------------------------------|------------5-------------------|
D|2-------2---2h4---2---2-2-------|3-----------3-------------------|
A|2-------2---2-----2---2-2-------|3-----------3-------------------|
D|2-------2---2-----2---2-2---0-2-|3-----------3-------------------|


Interlude

e|0---0---0---0---0---0---0---x-x-|3---3---3---3---3---3---3---3-3-|
B|0---0---0---0---0---0---0---x-x-|3---3---3---3---3---3---3---3-3-|
G|2---2---2---2---2---2---2---x-x-|0---0---0---0---0---0---0---0-0-|
D|2---2---2---2---2---2---2---x-x-|0---0---0---0---0---0---0---0-0-|
A|0---0---0---0---0---0---0---x-x-|2---2---2---2---2---2---2---2-2-|
D|--------------------------------|--------------------------------|


e|2---2---2---2---2---2---2---x-x-|1---1---1---x-x-3---3---3---x-x-|
B|3---3---3---3---3---3---3---x-x-|0---0---0---x-x-3---3---3---x-x-|
G|2---2---2---2---2---2---2---x-x-|2---2---2---x-x-0---0---0---x-x-|
D|0---0---0---0---0---0---0---x-x-|3---3---3---x-x-0---0---0---x-x-|
A|0---0---0---0---0---0---0---x-x-|3---3---3---x-x-2---2---2---x-x-|
D|--------------------------------|--------------------------------|


e|0---0---0---0---0---0---0---x-x-|3---3---3---3---3---3---3---3-3-|
B|0---0---0---0---0---0---0---x-x-|3---3---3---3---3---3---3---3-3-|
G|2---2---2---2---2---2---2---x-x-|0---0---0---0---0---0---0---0-0-|
D|2---2---2---2---2---2---2---x-x-|0---0---0---0---0---0---0---0-0-|
A|0---0---0---0---0---0---0---x-x-|2---2---2---2---2---2---2---2-2-|
D|--------------------------------|--------------------------------|


e|2---2---2---2---2---2---2---x-x-|
B|3---3---3---3---3---3---3---x-x-|
G|2---2---2---2---2---2---2---x-x-|
D|0---0---0---0---0---0---0---x-x-|
A|0---0---0---0---0---0---0---x-x-|
D|--------------------------------|


Bridge

e|--------------------------------|-------- ---------- -------- ------|
B|--------------------------------|8----/10\8/10--1010/12--1212/181818|
G|4/5---5-5/7---7-7/9---9-9/10--10|-------- ---------- -------- ------|
D|--------------------------------|5----/7-\5/7---7-7 /9---9-9 /151515|
A|2/3---3-3/5---5-5/7---7-7/8---8-|-------- ---------- -------- ------|
D|--------------------------------|-------- ---------- -------- ------|


Chorus x4 times

e|0-----0-0-0-0---0-0-0-0-0-0-0-0-|0-----0-------------------------|
B|1-----1-1-1-0---0-0-0-0-0-0-0-0-|1-----1-------------------------|
G|2-----2-2-2-2---2-2-2-2-2-2-2-2-|0-----0-------------------------|
D|2-----2-2-2-2---2-2-2-2-2-2-2-2-|2-----2-----5-----------5-------|
A|0-----0-0-0-0---0-0-0-0-0-0-0-0-|0-----0-----5-----------5-------|
D|--------------------------------|------------5-----------5-------|


e|--------------------------------|--------------------------------|
B|--------------------------------|------------6-------------------|
G|--------------------------------|------------5-------------------|
D|2-------2---2h4---2---2-2-------|3-----------3-------------------|
A|2-------2---2-----2---2-2-------|3-----------3-------------------|
D|2-------2---2-----2---2-2---0-2-|3-----------3-------------------|


Outro

e|0---0-0---0-0---0-0---0-0---0-0-|
B|1---1-1---1-0---0-0---0-0---0-0-|
G|2---2-2---2-2---2-2---2-2---2-2-|
D|2---2-2---2-2---2-2---2-2---2-2-|
A|0---0-0---0-0---0-0---0-0---0-0-|
D|--------------------------------|  x9 times


e|0-------------------------------|
B|1-------------------------------|
G|2-------------------------------|
D|2-------------------------------|
A|0-------------------------------|
D|--------------------------------|


===============================================================================
Comments