Hoobastank - To Be With You Chords & Tabs

 

To Be With You Chords & Tabs

Hoobastank Chords & Tabs

Version: 2 Type: Tab 0 ratings
1 star 2 stars 3 stars 4 stars 5 stars
comments

To Be With You Tab

.TO BE WITH YOU

Standard tuning

Intro
-0---0---------------0---------0-------0---------------------0-------|--------|
-0-2---2-------3-3-2---2-------0-3-3-2---2-----------3-3-------2-2---|--------|
-0-------0---0-----------0---0-0-----------0---0---------0-----------|--------|
-2---------4---------------4---2-------------4---4-----------------4/|--------|
-2-----------------------------2-------------------2-------2---------|--------|
-0-----------------------------0-------------------------------------|--------|

Verse
-------------------------------------------0-0--------------------------------|
-------------------------------------0---0-----0-0----------------------------|
-------------------------------------2-2---------2----------------------------|
-5p4-5p4-5p4-5p4-5p4-5p4-5p4-5p4-----1-1---------1-5p4-5p4-5p4-5p4-5p4-5p4-5p-|
---------------------------------2-2------------------------------------------|
------------------------------------------------------------------------------|

-----------------0-0-----------------------------------------------------0-0--|
---------------0-----0---------------------------------------------0-0-3---3--|
-------------0-----------------------------------------------------0-0-0---0--|
-4-5p4-----5-5---------10p9-10p9-10p9-10p9-10p9-10p9-10p9-10p9-2-2-2-2-2------|
-----------3-3----------------------------------------------------------------|
-------5-5--------------------------------------------------------------------|


---0-0-0-------0---------------0-0--|-----------------------------------------|
-0-3-5-0-3-3-2---2-------3-3-2---2-2|-----------------------------------------|
---0-0-0-----------0---0------------|-----------------------------------------|
---2-4-2-------------4--------------|-----------------------------------------|
---3-5-2----------------------------|-----------------------------------------|
-------0----------------------------|-----------------------------------------|

Chorus
-------5-------------------------------------------------------0-----2-2-0----|
-------5-------7-----------------------------------------------1-----3-3-0----|
-------5-------7------9--9--9--9--9--9--9--9--9--9--9--9-------0-----2-2-0----|
-------5-------7-----10-10-10-10--9--9--9--9--9--9--9--9-------2-----4-4-2----|
-------7-------9------9--9--9--9-10-10-10-10-10-10-10-10-0-0-0---2-2-----2----|
-5-5-5---7-7-7---8-8--8--8--8--8--8--8--8--8--8--8--8--8-----------------0----|


--0-0-0-0-0-0-0-0-------5-----------------------------------------------------|
--0-0-0-0-0-0-0-0-------5-------7---------------------------------------------|
--0-0-0-0-0-0-0-0-------5-------7------9--9--9--9--9--9--9--9--9--9--9--9-----|
--2-2-2-2-2-2-2-2-------5-------7-----10-10-10-10--9--9--9--9--9--9--9--9-----|
--2-2-2-2-2-2-2-2-------7-------9------9--9--9--9-10-10-10-10-10-10-10-10-----|
--0-0-0-0-0-0-0-0-5-5-5---7-7-7---8-8--8--8--8--8--8--8--8--8--8--8--8--8-----|


-------------------------0-------0---------------0-0--|-----------------------|
-------------------------0-3-3-2---2-------3-3-2---2-2|-----------------------|
-------------------------0-----------0---0------------|-----------------------|
-8-8-8-8-7-7-7-7-7-7-7-7-2-------------4--------------|-----------------------|
-5-5-5-5-5-5-5-5-5-5-5-5-2----------------------------|-----------------------|
-6-6-6-6-6-6-6-6-6-6-6-6-0----------------------------|-----------------------|
[ Tab from: http://www.guitartabs.cc/tabs/h/hoobastank/to_be_with_you_tab_ver_2.html ]
Interlude
-0---0-----------------0-0-----0---------------------1-1-0-1-0-----0----------|
-0-0---0---0-0---0---0---0---0---0---0-0-----0-------3-3---3---3---1---0-1p0--|
-2-------2---0-----------2-2-------2---0-------0---0-2-2---2-----2-2-2--------|
-2-----------2-----2-----2-------------2-2-4-----4---0-0---0-------2----------|
-0-----------2-----------0-------------2---------------------------0----------|
-------------0-------------------------0--------------------------------------|


-------0-0--------------------------------------------------------------------|
---1---3-5--------------------------------------------------------------------|
-2-----0-0-7/9-9-9/11-11-11-11/12-12-12-12/14-14-14-14/16-16-16-16/19-19-19---|
-------2-4--------------------------------------------------------------------|
-----0-3-5-5/7-7-7/-9--9--9--9/10-10-10-10/12-12-12-12/14-14-14-14/17-17-17---|
------------------------------------------------------------------------------|


-------------------------|----------------------------------------------------|
-------------------------|----------------------------------------------------|
-19/21-21-21-21-21-21-21\|----------------------------------------------------|
-------------------------|----------------------------------------------------|
-17/19-19-19-19-19-19-19\|----------------------------------------------------|
-------------------------|----------------------------------------------------|

Last Chorus
-------5-------------------------------------------------------0-----2-2------|
-------5-------7-----------------------------------------------1-----3-3------|
-------5-------7------9--9--9--9--9--9--9--9--9--9--9--9-------3-----2-2------|
-------5-------7-----10-10-10-10--9--9--9--9--9--9--9--9-------2-----4-4------|
-------7-------9------9--9--9--9-10-10-10-10-10-10-10-10-0-0-0---2-2----------|
-5-5-5---7-7-7---8-8--8--8--8--8--8--8--8--8--8--8--8--8----------------------|


-0----0-0-0-0-0-0-0-0-------5-------------------------------------------------|
-0----0-0-0-0-0-0-0-0-------5-------7-----------------------------------------|
-0----0-0-0-0-0-0-0-0-------5-------7------9--9--9--9--9--9--9--9--9--9--9--9-|
-2----2-2-2-2-2-2-2-2-------5-------7-----10-10-10-10--9--9--9--9--9--9--9--9-|
-2----2-2-2-2-2-2-2-2-------7-------9------9--9--9--9-10-10-10-10-10-10-10-10-|
-0----0-0-0-0-0-0-0-0-5-5-5---7-7-7---8-8--8--8--8--8--8--8--8--8--8--8--8--8-|


------------------------|------0-----------|----------------------------------|
------------------------|3-3-2---2---------|----------------------------------|
------------------------|----------0---0---|----------------------------------|
-8-8-8-8-7-7-7-7-7-7-7-7|------------4-----|-6-6-6-6-5-5-5-5-5-5-5-5----------|
-5-5-5-5-5-5-5-5-5-5-5-5|------------------|-3-3-3-3-3-3-3-3-3-3-3-3----------|
-6-6-6-6-6-6-6-6-6-6-6-6|------------------|-4-4-4-4-4-4-4-4-4-4-4-4----------|
                           do this 1st time     do this 2nd time
Outro
-0-------0-0---------0-0---------0-0---------0-0---0-|------------------------|
-0-3-3-2---2-2-3-3-2---2-2-3-3-2---2-2-3-3-2---2-2-0-|------------------------|
-0-------------------------------------------------0-|------------------------|
-2-------------------------------------------------2-|------------------------|
-2-------------------------------------------------2-|------------------------|
-0-------------------------------------------------0-|------------------------|
Comments