Hoobastank - The Reason Chords & Tabs

 

The Reason Chords & Tabs

Hoobastank Chords & Tabs

Version: 7 Type: Tab 0 ratings
1 star 2 stars 3 stars 4 stars 5 stars
comments

The Reason Tab

Artist- Hoobastank
Song- The Reason
Tabber- Iconoclast
Tuning- Normal

Intro
--------------------|
---7---9------------|
-----------8---9----|
-----------------|4x|
-7---7---7---7------|
--------------------|

Verse
--------------------|---------------------|
---7---9------------|---4---5-------------|
-----------8---9----|-----------4---6-----|
-----------------|4x|------------------|4x|
-7---7---7---7------|-4---4---4---4-------|
--------------------|---------------------|


--------------------|---------------------|
---7---9------------|---4---5-------------|
-----------8---9----|-----------4---6-----|
-----------------|4x|------------------|4x|
-7---7---7---7------|-4---4---4---4-------|
--------------------|---------------------|

--------------------|---------------------|
---4---5------------|---2---4-------------|
-----------4---6----|-----------2---4-----|
-----------------|4x|------------------|4x|
-0---0---0---0------|-2---2---2---2-------|
--------------------|---------------------|

Chorus (strum as necessary)
[ Tab from: http://www.guitartabs.cc/tabs/h/hoobastank/the_reason_tab_ver_7.html ]
-0--4--0--2--------|
-0--4--0--4--------|
-1--6--2--4--------|
-2--6--2--4--------|
-2--4--0--2--------|
-0-----------------|

 
Bridge (2:08) (strum and repeat as necessary)
--------------------|
--------------------|
-7---9--------------|
-7---9--------------|
-5---7--------------|
-5---0--------------|



Lyrics
i'm not a perfect person. 
there are many things i wish i didnt do
but i continue learning. 
i never meant to do those things to you.
and so i have to say before i go, 
that i just want you to know

i've found a reason for me, 
to change who i used to be
a reason to start over new, and the reason is you

i'm sorry that i hurt you, 
its something i must live with everyday
and all the pain i put you through, 
i wish that i could take it all away
and be the one who catches all your tears, 
thats why i need you to hear

i'm not a perfect person, 
i never meant to do those things to you
and so i have to say before i go 
that i just want you to know

i've found a reason for me, 
to change who i used to be
a reason to start over new, 
and the reason is you
i've found a reason to show a side of me you didnt know
a reason for all that i do, 
and the reason is you
Comments