Hoobastank - The Reason Chords & Tabs

 

The Reason Chords & Tabs

Hoobastank Chords & Tabs

Version: 4 Type: Tab 6 ratings
1 star 2 stars 3 stars 4 stars 5 stars
comments

The Reason Tab

Author: Hoobastank
Song: The reasons
Tabbed by Peter Oh

I know there are about 200 tabs on The Reason but for some reason they
are all in E scale, while the actual song is in F¡¦ Ionno y thoe¡¦ make 
sure to use your capo when you play in E. This tab is for electric 
guitars to play their soloes.. enjoy


Standard tuning

Intro (Comes after piano and the bass)

e----------------------------
B---------------------------
G-------0---2--------------
D--3-------------2---------       x4
A---------------------------
E---------------------------
[ Tab from: http://www.guitartabs.cc/tabs/h/hoobastank/the_reason_tab_ver_4.html ]
e---------------------------
B---------------------------
G---------------------------
D--0---2---3--------------          x4
A----------------3---------
E---------------------------

e---------------------------
B---------------------------
G---------------------------
D--------------0----------          x4
A--1----3-----------0------
E---------------------------

e---------------------------
B---------------------------
G---------------------------
D-------0----2------------          x4
A--3--------------3--------
E---------------------------

Chorus

e------------------------------
B-----------10-----11-------
G----10-----------------12--
D-----------------------------
A---------------------------
E---------------------------
Comments