Hoobastank - The Reason Chords & Tabs

 

The Reason Chords & Tabs

Hoobastank Chords & Tabs

Version: 3 Type: Tab 1 rating
1 star 2 stars 3 stars 4 stars 5 stars
comments

The Reason Tab

   
Hoobastank
-The Reason-

This song isn't hard...if you suck you might have problems gettin the flow of the intro 
but otherwise its a piece of pie
 
This part's played over an F note on the piano playing straight 16's.


---------------------------------------------------------------------------------------
-----8-10------8-10------8-10------8-10--------8-10------8-10------8-10------8-10------
--10------9-10------9-10------9-10------9---10------9-10------9-10------9-10------9----
---------------------------------------------------------------------------------------
---------------------------------------------------------------------------------------
---------------------------------------------------------------------------------------

---------------------------------------------------------------------------------------
----5-6-----5-6-----5-6-----5-6--------8-10------8-10------8-10------8-10--------------
--7-----5-7-----5-7-----5-7-----5---10------9-10------9-10------9-10------9------------
---------------------------------------------------------------------------------------
---------------------------------------------------------------------------------------
---------------------------------------------------------------------------------------
[ Tab from: http://www.guitartabs.cc/tabs/h/hoobastank/the_reason_tab_ver_3.html ]
---------------------------------------------------------------------------------------
----5-6-----5-6-----5-6-----5-6------5-6-----5-6-----5-6-----5-6-----------------------
--7-----5-7-----5-7-----5-7-----5--7-----5-7-----5-7-----5-7-----5---------------------
---------------------------------------------------------------------------------------
---------------------------------------------------------------------------------------
---------------------------------------------------------------------------------------

---------------------------------------------------------------------------------------
----3-5-----3-5-----3-5-----3-5--------------------------------------------------------
--5-----3-5-----3-5-----3-5-----3------------------------------------------------------
---------------------------------------------------------------------------------------
---------------------------------------------------------------------------------------
---------------------------------------------------------------------------------------

Power Chords:
It sounds like theres an acousitc strumming these chords and then another guitar with
lots of distortion just hitting them as power chords one time and letting them ring.

 F        Am        A#        G

These chords might be a little off but they sound pretty good i think..the song kinda
repeats itself so having this should be enough to figure out the rest

Peace Out, 
 Z $

Comments