Hoobastank - The Reason Chords & Tabs

 

The Reason Chords & Tabs

Hoobastank Chords & Tabs

Version: 10 Type: Tab 0 ratings
1 star 2 stars 3 stars 4 stars 5 stars
comments

The Reason Tab

Song : The Reason
Band : Hoobastank 
Tabbed By : Diamond Jerry (Raptureboy182@yahoo.com)

Listen carefully for the timing....


Standard Tuning
-----------------------------------------------------------------------------

[Intro]

e|-----------------------------------------------------------------------|
B|--------9------------9------------9------------9-----------------------|
G|--9-h11---8----9-h11---8----9-h11---8----9-h11---8---------------------|
D|-----------------------------------------------------------------------|
A|-----------------------------------------------------------------------|
E|-----------------------------------------------------------------------|


[Verse]
e|-----------------------------------------------------------------------|
B|--------9------------9------------9------------9-----------------------|
G|--9-h11---8----9-h11---8----9-h11---8----9-h11---8---------------------|
D|-----------------------------------------------------------------------|
A|-----------------------------------------------------------------------|
E|-----------------------------------------------------------------------|
I'm not a perfect person

e|-----------------------------------------------------------------------|
B|-----------------------------------------------------------------------|
G|--6-h8-h9------6-h8-h9------6-h8-h9------6-h8-h9-----------------------|
D|----------9------------9------------9------------9---------------------|
A|-----------------------------------------------------------------------|
E|-----------------------------------------------------------------------|
There's many things I wish I didn't do

e|-----------------------------------------------------------------------|
B|--------9------------9------------9------------9-----------------------|
G|--9-h11---8----9-h11---8----9-h11---8----9-h11---8---------------------|
D|-----------------------------------------------------------------------|
A|-----------------------------------------------------------------------|
E|-----------------------------------------------------------------------|
But I continue learning

e|-----------------------------------------------------------------------|
B|-----------------------------------------------------------------------|
G|--6-h8-h9------6-h8-h9------6-h8-h9------6-h8-h9-----------------------| x2
D|----------9------------9------------9------------9---------------------|
A|-----------------------------------------------------------------------|
E|-----------------------------------------------------------------------|
I never meant to do those things to you
And so I have to say before I go

[ Tab from: http://www.guitartabs.cc/tabs/h/hoobastank/the_reason_tab_ver_10.html ]
[Pre-chorus]
e|-----------------------------------------------------------------------|
B|-----------------------------------------------------------------------|
G|----6-h8----------6-h8---------6-h8----------6-h8----------------------|
D|--9-----9~------9-----9~-----9-----9~------9-----9~--------------------|
A|-----------------------------------------------------------------------|
E|-----------------------------------------------------------------------|
That I just want you to know...

(Fill in)
e|----11h12---(Repeat several times)---|
B|-------------------------------------|
G|-------------------------------------|
D|-------------------------------------|
A|-------------------------------------|
E|-------------------------------------|


[Chorus]
e|--0~--0-0-00-0~--------------------------------------------------------|
B|--0~--0-0-00-0~----4~--4-4-44-4~-------~-------------------------------|
G|--1~--1-1-11-1~----6~--6-6-66-6~----5~~-5-5-55-5~----7~--7-7-77-7~-----|
D|--2~--2-2-22-2~----6~--6-6-66-6~----7~--7-7-77-7~----9~--9-9-99-9~-----|
A|--2~--2-2-22-2~----4~--4-4-44-4~----7~--7-7-55-7~----9~--9-9-99-9~-----|
E|--0~--0-0-00-0~---------------------5~--5-5-55-5~----7~--7-7-77-7~-----|
I've found a reason for me to change who I used to be
A reason to start over new and the reason is you

(Some background guitar)
e|---12~----\16~----\17~-----/14~----|
B|-----------------------------------|
G|-----------------------------------|
D|-----------------------------------|
A|-----------------------------------|
E|-----------------------------------|


-Verse-
I'm sorry that I hurt you
It's something I must live with everyday
And all the pain I put you through
I wish that I could take it all away
And be the one who catches all your tears
That's why i need you to hear


-Repeat Chorus-


[Bridge]
e|------------0-0-0-0--------------0-0-0-0-0-0-0-0----|
B|------------0-0-0-0--------------0-0-0-0-0-0-0-0----|
G|--7-7-7-7---1-1-1-1---7-7-7-7----1-1-1-1-1-1-1-1----|
D|--7-7-7-7---2-2-2-2---7-7-7-7----2-2-2-2-2-2-2-2----|
A|--5-5-5-5---2-2-2-2---5-5-5-5----2-2-2-2-2-2-2-2----|
E|--5-5-5-5---0-0-0-0---5-5-5-5----0-0-0-0-0-0-0-0----|
and the reason is you...[x4]


-Verse-
I'm not a perfect person I never meant to do those things to you
And so I have to say before I go that I just want you to know


-Repeat Chorus- x2
I've found a reason for me, to change who I used to be
A reason to start over new and the reason is you

I've found a reason to show, a side of me you didn't know
A reason for all that I do and the reason is you

[End on E]
e|--0~--|
B|--0~--|
G|--1~--|
D|--2~--|
A|--2~--|
E|--0~--|

------------------------------------------------------------------------------
Any comments or corrections,just mail me to Raptureboy182@yahoo.com/ICQ #115343571
Comments