Hoobastank - The Reason Chords & Tabs

 

The Reason Chords & Tabs

Hoobastank Chords & Tabs

Version: 1 Type: Tab 7 ratings
1 star 2 stars 3 stars 4 stars 5 stars
comments

The Reason Tab

artist: hoobastank
song: the reason

tabbed by matt rosengarten


standard tuning


intro

e-------------------------------------
b-------------------------------------
g-------------------------------------
d-------------------------------------
a---7-7-7-7-7-7-7-7-7-7-7-7-7-7-7-7---
e-------------------------------------


verse 1

gtr 1
e-------------------------------------
b-------------------------------------
g-------------------------------------
d-------------------------------------
a---7-7-7-7-7-7-7-7-7-7-7-7-7-7-7-7---
e-------------------------------------

gtr2
e---------------------------------------
b-------7-9-----7-9-----7-9-----7-9-----
g---8h9-----8-9-----8-9-----8-9-----8---
d---------------------------------------
a---------------------------------------
e---------------------------------------

gtr 1 
e-------------------------------------
b-------------------------------------
g-------------------------------------
d-------------------------------------
a---4-4-4-4-4-4-4-4-4-4-4-4-4-4-4-4---
e-------------------------------------

gtr2
e---------------------------------------
b-------4-5-----4-5-----4-5-----4-5-----
g---4h6-----4-6-----4-6-----4-6-----4---
d---------------------------------------
a---------------------------------------
e---------------------------------------


gtr 1 
e-------------------------------------
b-------------------------------------
g-------------------------------------
d-------------------------------------
a---0-0-0-0-0-0-0-0-0-0-0-0-0-0-0-0---
e-------------------------------------

gtr2
e---------------------------------------
b-------4-5-----4-5-----4-5-----4-5-----
g---4h6-----4-6-----4-6-----4-6-----4---
d---------------------------------------
a---------------------------------------
e---------------------------------------
[ Tab from: http://www.guitartabs.cc/tabs/h/hoobastank/the_reason_tab.html ]
gtr 1 
e-------------------------------------
b-------------------------------------
g-------------------------------------
d-------------------------------------
a---2-2-2-2-2-2-2-2-2-2-2-2-2-2-2-2---
e-------------------------------------

gtr2
e---11h12p11h12p11h12p11h12p11h12p11h12---
b-----------------------------------------
g-----------------------------------------
d-----------------------------------------
a-----------------------------------------
e-----------------------------------------


chorus

gtr 1
e-----0------4-------0-------2---------
b-----0------5-------0-------4---------
g-----1------6-------2-------2---------
d-----2------6-------2-------4---------
a-----2------4-------0-------2---------
e-----0--------------------------------

gtr2
e-----12-----16------17------14-------
b-------------------------------------
g-------------------------------------
d-------------------------------------
a-------------------------------------
e-------------------------------------

verse 2 same as 1

chorus


bridge

gtr 1
e-----0------0------0-------0-------
b-----3------0------3-------0-------
g-----2------1------2-------1-------
d-----0------2------0-------2-------
a-----0------2------0-------2-------
e------------0--------------0-------

gtr2
e-----17-----16-----17------16--------
b-------------------------------------
g-------------------------------------
d-------------------------------------
a-------------------------------------
e-------------------------------------


verse 3 - same again


chorus to end


last couple of notes over the final E chord
e-------------------------------------
b-----11-10-8--10---------------------
g-------------------------------------
d-------------------------------------
a-------------------------------------
e-------------------------------------

Comments