Hoobastank - Say The Same Chords & Tabs

 

Say The Same Chords & Tabs

Hoobastank Chords & Tabs

Version: 1 Type: Tab

Say The Same Tab

   
Artist: Hoobastank
Song: Say The Same
Album: Every Man For Himself
Tuning: Standard

INTRO:
e|--------------------------------------|
B|-7h9-9h10-10h12-7h9-9-------------5-5-|
G|----------------------4-6-7-6-4-7-----|
D|--------------------------------------|
A|--------------------------------------|
E|--------------------------------------|

Keep on repeating until:
e|----------------------------------------------------|
B|-7h9-9h10-10h12-7h9-9-------------5-5-----5-5---5-7-|
G|----------------------4-6-7-6-4-7-----4-7-----4-----|
D|----------------------------------------------------|
A|----------------------------------------------------|
E|----------------------------------------------------|

1st CHORUS:
e|---------------------------------------|
B|---------------------------------------|
G|-9999-999----77-777-9999-999-55-77-777-|
D|-9999-999-55-77-777-9999-999-55-77-777-|
A|-7777-777-55-55-555-7777-777-33-55-555-|
E|----------33---------------------------|

e|-------------------------------|
B|-------------------------------|
G|-9999-999----77-777-555-7-7-77-|
D|-9999-999-55-77-777-555-7-7-77-|
A|-7777-777-55-55-555-333-5-5-55-|
E|----------33-------------------|

PRE-CHORUS:
e|-------------------------------------------|
B|-7h9-9h10-10h12-7h9-9-9-7h9-9h10-10h12-7h9-|
G|-------------------------------------------|
D|-------------------------------------------|
A|-------------------------------------------|
E|-------------------------------------------|

e|------------------------------|
B|------------------------------|
G|-11/13-13/14-14/16-11/13------|
D|--x/x---x/x---x/x---x/x--5--7-| (x2)
A|--9/11-11/12-12/14--9/11-5--7-|
E|-------------------------3--5-|
[ Tab from: http://www.guitartabs.cc/tabs/h/hoobastank/say_the_same_tab.html ]
e|------------------------------------|
B|------------------------------------|
G|-11/13-13/14-14/16-11/13-------5--7-|
D|--x/x---x/x---x/x---x/x--5--7--5--7-| 
A|--9/11-11/12-12/14--9/11-5--7--3--5-|
E|-------------------------3--5-------|

2nd CHORUS:
e|----------------------------------------|
B|----------------------------------------|
G|-------------77-777----------55-77-xxxx-|
D|-2222-222-55-77-777-2222-222-55-77-xxxx-|
A|-2222-222-55-55-555-2222-222-33-55-xxxx-|
E|-0000-000-33--------0000-000------------|

e|------------------------------------------|
B|------------------------------------------|
G|--------------------555-7-7-77-555-7-7-77-|
D|-2222-222-55-77-777-555-7-7-77-555-7-7-77-|
A|-2222-222-55-55-555-333-5-5-55-333-5-5-55-|
E|-0000-000-33------------------------------|

Right before the solo play:
e|---------------------|
B|---------------------|
G|---------------------|
D|-22222222-222-222222-| (x4)
A|-22222222-222-222222-|
E|-00000000-000-000000-|

SOLO:
e|-----------------------|
B|-----------------------|
G|-----------------------|
D|-----------------------| (x3)
A|-5h7p5-4h5-2h4p2-0-2-2-|
E|-----------------------|

e|-----------------------|
B|-----------------------|
G|-----------------------|
D|-----------------------| 
A|-5h7-4h5-7h9-4h5-5-----|
E|-----------------------|

e|-----------------------|
B|-----------------------|
G|-----------------------|
D|-----------------------| (x3)
A|-5h7p5-4h5-2h4p2-0-2-2-|
E|-----------------------|

e|-----------------------|
B|-----------------------|
G|-----------------------|
D|-----------------------| 
A|-5h7-4h5-7h9-9h11-11---|
E|-----------------------|

And then you repeat the 2nd chorus, along with the first half of the intro.

Feel free to comment or rate.