Hoobastank - Same Direction Chords & Tabs

 

Same Direction Chords & Tabs

Hoobastank Chords & Tabs

Version: 5 Type: Tab 0 ratings
1 star 2 stars 3 stars 4 stars 5 stars
comments

Same Direction Tab

Drop D tuning

\ slide down


Intro

E|----------0-----|------0---------|----------0-----|------0---------|
B|------3---------|--3-------------|------3---------|--3-------------|
G|--------------4-|----------4---4-|--------------4-|----------4---0-|
D|2-2-2---2---2---|2---2---2---2---|0-0-0---0---0---|0---0---0---0---|
A|----------------|----------------|----------------|----------------|
D|----------------|----------------|----------------|----------------|


E|----------0-----|------0---------|----------0-----|--------------0-|
B|------3---------|--3-------------|------3-------3-|--5---7-------0-|
G|--------------4-|----------4---4-|----------------|--------------7-|
D|----------------|----------------|----------------|0---0-----------|
A|4-4-4---4---4---|4---4---4---4---|3-3-3---3---3---|----------------|
D|----------------|----------------|----------------|----------------|


E|------3-3-3-----|--3-3-3-----3---|----------------|----------------|
B|------3-3-3-----|--3-3-3-----3---|----------------|----------------|
G|----------------|----------------|------111111----|--111111----11--|
D|2-2-2-------2-2-|2-------2-2-----|4-4-4-------4-4-|4-------4-4-----|
A|2-2-2-------2-2-|2-------2-2-----|0-0-0-9-9-9-0-0-|0-9-9-9-0-0-9---|
D|2-2-2-------2-2-|2-------2-2-----|0-0-0-------0-0-|0-------0-0-----|


E|----------------|----------------|----------------|----------------|
B|----------------|----------------|----------------|----------------|
G|------121212----|--121212----12--|------9-9-9-----|--111111----11--|
D|7-7-7-------7-7-|7-------7-7-----|101010------4-4-|4-------4-4-----|
A|7-7-7-1010107-7-|7-1010107-7-10--|1010107-7-7-0-0-|0-9-9-9-0-0-9---|
D|7-7-7-------7-7-|7-------7-7-----|101010------0-0-|0-------0-0-----|

__________________________________________________________________________

Verse1

e|----------0-----|------0---------|----------0-----|------0---------|
B|------3---------|--3-------------|------3---------|--3-------------|
G|--------------4-|----------4---4-|--------------4-|----------4---0-|
D|2-2-2---2---2---|2---2---2---2---|0-0-0---0---0---|0---0---0---0---|
A|----------------|----------------|----------------|----------------|
D|----------------|----------------|----------------|----------------|


e|----------0-----|------0---------|----------0-----|----------------|
B|------3---------|--3-------------|------3-------3-|--5---7\--------|
G|--------------4-|----------4---4-|----------------|----------------|
D|----------------|----------------|----------------|0---0-----------|
A|4-4-4---4---4---|4---4---4---4---|3-3-3---3---3---|----------------|
D|----------------|----------------|----------------|----------------|


e|----------0-----|------0---------|----------0-----|------0---------|
B|------3---------|--3-------------|------3---------|--3-------------|
G|--------------4-|----------4---4-|--------------4-|----------4---0-|
D|2-2-2---2---2---|2---2---2---2---|0-0-0---0---0---|0---0---0---0---|
A|----------------|----------------|----------------|----------------|
D|----------------|----------------|----------------|----------------|


e|----------0-----|------0---------|----------0-----|--------------0-|
B|------3---------|--3-------------|------3-------3-|--5---7-------0-|
G|--------------4-|----------4---4-|----------------|--------------7-|
D|----------------|----------------|----------------|0---0-----------|
A|4-4-4---4---4---|4---4---4---4---|3-3-3---3---3---|----------------|
D|----------------|----------------|----------------|----------------|


Chorus1 x2times

e|------3-3-3-----|--3-3-3-----3---|----------------|----------------|
B|------3-3-3-----|--3-3-3-----3---|----------------|----------------|
G|----------------|----------------|------111111----|--111111----11--|
D|2-2-2-------2-2-|2-------2-2-----|4-4-4-------4-4-|4-------4-4-----|
A|2-2-2-------2-2-|2-------2-2-----|0-0-0-9-9-9-0-0-|0-9-9-9-0-0-9---|
D|2-2-2-------2-2-|2-------2-2-----|0-0-0-------0-0-|0-------0-0-----|


e|----------------|----------------|----------------|----------------|
B|----------------|----------------|----------------|----------------|
G|----------------|----------------|7---7---7-7-7---|----------------|
D|7---7-7-7-7-7-7-|7-7-7-7-7-7-7-7-|5---5---5-5-5-4-|--4-4-5---5-5---|
A|7---7-7-7-7-7-7-|7-7-7-7-7-7-7-7-|3---3---3-3-3-0-|--0-0-5---5-5---|
D|7---7-7-7-7-7-7-|7-7-7-7-7-7-7-7-|--------------0-|--0-0-5---5-5---|

_____________________________________________________________________x2times 


e|----------------|----------------|
B|----------------|----------------|
G|7---7---7-7-7---|----------------|
D|5---5---5-5-5-4-|--4-4-5---5-5---|
A|3---3---3-3-3-0-|--0-0-5---5-5---|
D|--------------0-|--0-0-5---5-5---|


Bridge
[ Tab from: http://www.guitartabs.cc/tabs/h/hoobastank/same_direction_tab_ver_5.html ]
e|------3-3-3-----|--3-3-3-----3---|------3-3-3-----|--3-3-3-----3---|
B|------3-3-3-----|--3-3-3-----3---|------3-3-3-----|--3-3-3-----3---|
G|----------------|----------------|----------------|----------------|
D|2-2-2-------2-2-|2-------2-2-----|2-2-2-------2-2-|2-------2-2-----|
A|2-2-2-------2-2-|2-------2-2-----|2-2-2-------2-2-|2-------2-2-----|
D|2-2-2-------2-2-|2-------2-2-----|2-2-2-------2-2-|2-------2-2-----|


e|------3-3-3-----|--3-3-3-----3---|------3-3-3-----|--3-3-3-----0---|
B|------3-3-3-----|--3-3-3-----3---|------3-3-3-----|--3-3-3-----0---|
G|----------------|----------------|----------------|----------------|
D|2-2-2-------2-2-|2-------2-2-----|2-2-2-------2-2-|2-------2-2-----|
A|2-2-2-------2-2-|2-------2-2-----|2-2-2-------2-2-|2-------2-2-----|
D|2-2-2-------2-2-|2-------2-2-----|2-2-2-------2-2-|2-------2-2-----|


Interlude x2times

e|----------------|----------------|----------------|----------------|
B|----------------|----------------|----------------|----------------|
G|----------------|----------------|----------------|----------------|
D|2-0-2---2-2-0-2-|--2-2-2-2-0-2---|5-4-4---4-5-4-4-|--4-4-4-5-4-4---|
A|2-0-2---2-2-0-2-|--2-2-2-2-0-2---|2-0-0---0-2-0-0-|--0-0-0-2-0-0---|
D|2-0-2---2-2-0-2-|--2-2-2-2-0-2---|2-0-0---0-2-0-0-|--0-0-0-2-0-0---|


e|----------------|----------------|----------------|----------------|
B|5---5---5-5---5-|--5-5---5---5---|----------------|----------------|
G|6---6---6-6---6-|--6-6---6---6---|7---7---7-7-7---|----------------|
D|7---7---7-7---7-|--7-7---7---7---|5---5---5-5-5-4-|--4-4-5---5-5---|
A|4-0-4---4-4-0-4-|--4-4-0-4-0-4---|3---3---3-3-3-0-|--0-0-5---5-5---|
D|----------------|----------------|--------------0-|--0-0-5---5-5---|


e|----------------|----------------|
B|----------------|----------------|
G|7---7---7-7-7---|----------------|
D|5---5---5-5-5-4-|--4-4-5---5-5---|
A|3---3---3-3-3-0-|--0-0-5---5-5---|
D|--------------0-|--0-0-5---5-5---|


Verse2

e|----------0-----|------0---------|----------0-----|------0---------|
B|------3---------|--3-------------|------3---------|--3-------------|
G|--------------4-|----------4---4-|--------------4-|----------4---4-|
D|2-2-2---2---2---|2---2---2---2---|0-0-0---0---0---|0---0---0---0---|
A|----------------|----------------|----------------|----------------|
D|----------------|----------------|----------------|----------------|


Chorus2

E|----------------|----------------|----------------|----------------|
B|----------------|----------------|----------------|----------------|
G|------121212----|--121212----12--|7---7---7-7-7---|----------------|
D|7-7-7-------7-7-|7-------7-7-----|5---5---5-5-5-4-|--4-4-5---5-5---|
A|7-7-7-1010107-7-|7-1010107-7-10--|3---3---3-3-3-0-|--0-0-5---5-5---|
D|7-7-7-------7-7-|7-------7-7-----|--------------0-|--0-0-5---5-5---|


e|------3-3-3-----|--3-3-3-----3---|----------------|----------------|
B|------3-3-3-----|--3-3-3-----3---|----------------|----------------|
G|----------------|----------------|------111111----|--111111----11--|
D|2-2-2-------2-2-|2-------2-2-----|4-4-4-------4-4-|4-------4-4-----|
A|2-2-2-------2-2-|2-------2-2-----|0-0-0-9-9-9-0-0-|0-9-9-9-0-0-9---|
D|2-2-2-------2-2-|2-------2-2-----|0-0-0-------0-0-|0-------0-0-----|


e|----------------|----------------|----------------|----------------|
B|----------------|----------------|----------------|----------------|
G|----------------|----------------|7---7---7-7-7---|----------------|
D|7---7-7-7-7-7-7-|7-7-7-7-7-7-7-7-|5---5---5-5-5-4-|--4-4-5---5-5---|
A|7---7-7-7-7-7-7-|7-7-7-7-7-7-7-7-|3---3---3-3-3-0-|--0-0-5---5-5---|
D|7---7-7-7-7-7-7-|7-7-7-7-7-7-7-7-|--------------0-|--0-0-5---5-5---|


e|----------------|----------------|----------------|----------------|
B|----------------|----------------|----------------|----------------|
G|7---7---7-7-7---|----------------|7---7---7-7-7---|----------------|
D|5---5---5-5-5-4-|--4-4-5---5-5---|5---5---5-5-5-4-|--4-4-5---5-5---|
A|3---3---3-3-3-0-|--0-0-5---5-5---|3---3---3-3-3-0-|--0-0-5---5-5---|
D|--------------0-|--0-0-5---5-5---|--------------0-|--0-0-5---5-5---|


e|------3-3-3-----|--3-3-3-----3---|------3-3-3-----|--3-3-3-----3---|
B|------3-3-3-----|--3-3-3-----3---|------3-3-3-----|--3-3-3-----3---|
G|----------------|----------------|----------------|----------------|
D|2-2-2-------2-2-|2-------2-2-----|2-2-2-------2-2-|2-------2-2-----|
A|2-2-2-------2-2-|2-------2-2-----|2-2-2-------2-2-|2-------2-2-----|
D|2-2-2-------2-2-|2-------2-2-----|2-2-2-------2-2-|2-------2-2-----|


e|------3-3-3-----|--3-3-3-----3---|------3-3-3-----|--3-3-3-----3\--|
B|------3-3-3-----|--3-3-3-----3---|------3-3-3-----|--3-3-3-----3\--|
G|----------------|----------------|----------------|----------------|
D|2-2-2-------2-2-|2-------2-2-----|2-2-2-------2-2-|2-------2-2-----|
A|2-2-2-------2-2-|2-------2-2-----|2-2-2-------2-2-|2-------2-2-----|
D|2-2-2-------2-2-|2-------2-2-----|2-2-2-------2-2-|2-------2-2-----|
Comments