Hoobastank - Same Direction Chords & Tabs

 

Same Direction Chords & Tabs

Hoobastank Chords & Tabs

Version: 4 Type: Tab 0 ratings
1 star 2 stars 3 stars 4 stars 5 stars
comments

Same Direction Tab

HOOBASTANK

"Same Direction"

INTRO/VERSE
-------------------------------------------------------------------------
-------------------------------------------------------------------------
------7-9---7-9-------7-9---7-9--------7-9----7-9--------7-9---7-11------
----------9-----9---------9-----9-----------9-----9----------9-----------
---7777777777777777555555555555555554444444444444444433333333/55555555---
-------------------------------------------------------------------------

THEN
------------------------------------------------------------------------------
------------------------------------------------------------------------------
------------------------------------------------------------------------------
---999--12-12-12-999--12-12-12--99--12--777--11-11-11-777--11-11-11--77--11---
---777--10-10-10-777--10-10-10--77--10--555--9--9--9--555--9--9--9---55--9----
------------------------------------------------------------------------------

----------------------------------------------------------------
----------------------------------------------------------------
--------777-------777------7------------------------------------
---222--555--222--555--22--5--555--999--777--11-11-11--77--11---
---000-------000-------00-----333--777--555--9--9--9---55--9----
----------------------------------------------------------------
[ Tab from: http://www.guitartabs.cc/tabs/h/hoobastank/same_direction_tab_ver_4.html ]
CHORUS
------------------------------------------------------------------------------
------------------------------------------------------------------------------
------------------------------------------------------------------------------
---999--12-12-12-999--12-12-12--99--12--777--11-11-11-777--11-11-11--77--11---
---777--10-10-10-777--10-10-10--77--10--555--9--9--9--555--9--9--9---55--9----
------------------------------------------------------------------------------

----------------------------------------
---------------------------------------- 
---------------------------------------- REPEAT
---2222222222222222--5555555--7777777--- 2X
---0000000000000000--3333333--5555555---
----------------------------------------

THEN THIS PART
--------------------------------------------------------------------------
--------------------------------------------------------------------------
--------------------------------------------------------------------------
---979-9979-99979--977-7797-77977--2222222222222222--55555555--77777777---
---757-7757-77757--755-5575-55755--0000000000000000--33333333--55555555---
--------------------------------------------------------------------------

------------------------
------------------------
------------------------
---55555555--77777777---
---33333333--55555555---
------------------------



MXBRANDON987
Comments