Hoobastank - Same Direction Chords & Tabs

 

Same Direction Chords & Tabs

Hoobastank Chords & Tabs

Version: 3 Type: Tab 0 ratings
1 star 2 stars 3 stars 4 stars 5 stars
comments

Same Direction Tab

Author: Hoobastank
Title: Same Direction
Album: The Reason
Tabbed by: Rob Joyce
Email: rob_joyce@hotmail.com
Tabbed: 14/12/03

Drop D Tuning.

> = slide down


Intro

e|----------0--------0-------|---------0--------0-------|
B|-------3--------3----------|------3--------3----------|
G|-------------4--------4--4-|------------4-----------0-|
D|-2-2-2---------------------|0-0-0----------------0----|
A|---------------------------|--------------------------|
D|---------------------------|--------------------------|


e|----------0--------0-------|---------0--------------0-|
B|-------3--------3----------|------3--------5--7-----0-|
G|-------------4--------4--4-|------------------------0-|
D|---------------------------|------------0-----------0-|
A|-4-4-4---------------------|3-3-3---------------------|
D|---------------------------|--------------------------|

    
e|-------3-3-3-------3-3-3-----3-3-|---------------------------------|
B|-------3-3-3-------3-3-3-----3-3-|---------------------------------|
G|---------------------------------|------111111------111111----1111-|
D|-2-2-2-------2-2-2-------2-2-----|0-0-0-------0-0-0-------0-0------|
A|-2-2-2-------2-2-2-------2-2-----|0-0-0-9-9-9-0-0-0-9-9-9-0-0-9-9--|
D|-2-2-2-------2-2-2-------2-2-----|0-0-0-------0-0-0-------0-0------|


e|------------------------------------|-----------------------------------|
B|------------------------------------|-----------------------------------|
G|-------121212-------121212-----1212-|--------9-9-9-------111111----1111-|
D|-7-7-7--------7-7-7--------7-7------|-101010-------0-0-0-------0-0------|
A|-7-7-7-101010-7-7-7-101010-7-7-1010-|-101010-7-7-7-0-0-0-9-9-9-0-0-9-9--|
D|-7-7-7--------7-7-7--------7-7------|-101010-------0-0-0-------0-0------|

___________________________________________________________________________

Verse

e|----------0--------0-------|---------0--------0-------|
B|-------3--------3----------|------3--------3----------|
G|-------------4--------4--4-|------------4-----------0-|
D|-2-2-2---------------------|0-0-0----------------0----|
A|---------------------------|--------------------------|
D|---------------------------|--------------------------|


e|----------0--------0-------|---------0----------------|
B|-------3--------3----------|------3--------5--7>------|
G|-------------4--------4--4-|--------------------------|
D|---------------------------|------------0-------------|
A|-4-4-4---------------------|3-3-3---------------------|
D|---------------------------|--------------------------|


e|----------0--------0-------|---------0--------0-------|
B|-------3--------3----------|------3--------3----------|
G|-------------4--------4--4-|------------4-----------0-|
D|-2-2-2---------------------|0-0-0----------------0----|
A|---------------------------|--------------------------|
D|---------------------------|--------------------------|


e|----------0--------0-------|---------0-------------0--|
B|-------3--------3----------|------3--------5--7----0--|
G|-------------4--------4--4-|-----------------------0--|
D|---------------------------|------------0----------0--|
A|-4-4-4---------------------|3-3-3---------------------|
D|---------------------------|--------------------------|

___________________________________________________________________________

Chorus x2

e|-------3-3-3-------3-3-3-----3---|---------------------------------|
B|-------3-3-3-------3-3-3-----3---|---------------------------------|
G|---------------------------------|------111111------111111----11---|
D|-2-2-2-------2-2-2-------2-2-----|0-0-0-------0-0-0-------0-0------|
A|-2-2-2-------2-2-2-------2-2-----|0-0-0-9-9-9-0-0-0-9-9-9-0-0-9----|
D|-2-2-2-------2-2-2-------2-2-----|0-0-0-------0-0-0-------0-0------|
[ Tab from: http://www.guitartabs.cc/tabs/h/hoobastank/same_direction_tab_ver_3.html ]
e|---------------------------------|----------------------------------|
B|---------------------------------|----------------------------------|
G|---------------------------------|----------------------------------|
D|-7-7-7-7-7-7-7-7-7-7-7-7-7-7-7-7-|-1212121212121212-0-0-0-0-5-5-5-5-|
A|-7-7-7-7-7-7-7-7-7-7-7-7-7-7-7-7-|-1010101010101010-0-0-0-0-5-5-5-5-|
D|-7-7-7-7-7-7-7-7-7-7-7-7-7-7-7-7-|-1010101010101010-0-0-0-0-5-5-5-5-|

____________________________________________________________________________

Interlude x2

e|---------------------------------|--------------------------------|
B|---------------------------------|--------------------------------|
G|---------------------------------|--------------------------------|
D|-2-0-2-2-2-2-0-2-2-2-2-2-2-0-2-2-|2-0-0-0-0-0-2-0-0-0-0-0-0-0-2-0-|
A|-2-0-2-2-2-2-0-2-2-2-2-2-2-0-2-2-|2-0-0-0-0-0-2-0-0-0-0-0-0-0-2-0-|
D|-2-0-2-2-2-2-0-2-2-2-2-2-2-0-2-2-|2-0-0-0-0-0-2-0-0-0-0-0-0-0-2-0-|


e|---------------------------------|----------------------------------|
B|---------------------------------|----------------------------------|
G|-9-9-9-9-9-9-9-9-9-9-9-9-9-9-9-9-|----------------------------------|
D|-7-7-7-7-7-7-7-7-7-7-7-7-7-7-7-7-|-1212121212121212-0-0-0-5-5-5-5-5-|
A|-4-4-4-4-4-4-4-4-4-4-4-4-4-4-4-4-|-1010101010101010-0-0-0-5-5-5-5-5-|
D|---------------------------------|-1010101010101010-0-0-0-5-5-5-5-5-|

Play the last bar twice second time around, then...


e|----------0--------0-------|---------0--------0-------|
B|-------3--------3----------|------3--------3----------|
G|-------------4--------4----|------------4-------------|
D|-2-2-2---------------------|0-0-0----------------0----|
A|---------------------------|--------------------------|
D|---------------------------|--------------------------|

e|------------------------------------|----------------------------------|
B|------------------------------------|----------------------------------|
G|-------121212-------121212-----12---|----------------------------------|
D|-7-7-7--------7-7-7--------7-7------|-1010101010101010-0-0-0-0-5-5-5-5-|
A|-7-7-7-101010-7-7-7-101010-7-7-10---|-1010101010101010-0-0-0-0-5-5-5-5-|
D|-7-7-7--------7-7-7--------7-7------|-1010101010101010-0-0-0-0-5-5-5-5-|


e|-------3-3-3-------3-3-3-----3-3-|---------------------------------|
B|-------3-3-3-------3-3-3-----3-3-|---------------------------------|
G|---------------------------------|------111111------111111----1111-|
D|-2-2-2-------2-2-2-------2-2-----|0-0-0-------0-0-0-------0-0------|
A|-2-2-2-------2-2-2-------2-2-----|0-0-0-9-9-9-0-0-0-9-9-9-0-0-9-9--|
D|-2-2-2-------2-2-2-------2-2-----|0-0-0-------0-0-0-------0-0------|


e|---------------------------------|----------------------------------|
B|---------------------------------|----------------------------------|
G|---------------------------------|----------------------------------|
D|-7-7-7-7-7-7-7-7-7-7-7-7-7-7-7-7-|-1212121212121212-0-0-0-0-5-5-5-5-|
A|-7-7-7-7-7-7-7-7-7-7-7-7-7-7-7-7-|-1010101010101010-0-0-0-0-5-5-5-5-|
D|-7-7-7-7-7-7-7-7-7-7-7-7-7-7-7-7-|-1010101010101010-0-0-0-0-5-5-5-5-|

e|---------------------------------------------------------------------|
B|---------------------------------------------------------------------|
G|---------------------------------------------------------------------|
D|-1212121212121212-0-0-0-0-5-5-5-5-|-1212121212121212-0-0-0-0-5-5-5-5-|
A|-1010101010101010-0-0-0-0-5-5-5-5-|-1010101010101010-0-0-0-0-5-5-5-5-|
D|-1010101010101010-0-0-0-0-5-5-5-5-|-1010101010101010-0-0-0-0-5-5-5-5-|

    
e|-------3-3-3-------3-3-3-----3-3-|
B|-------3-3-3-------3-3-3-----3-3-|
G|---------------------------------|
D|-2-2-2-------2-2-2-------2-2-----| x4 and slide down to finish
A|-2-2-2-------2-2-2-------2-2-----|
D|-2-2-2-------2-2-2-------2-2-----|
Comments