Hoobastank - Same Direction Chords & Tabs

 

Same Direction Chords & Tabs

Hoobastank Chords & Tabs

Version: 2 Type: Tab 0 ratings
1 star 2 stars 3 stars 4 stars 5 stars
comments

Same Direction Tab

   
Hoobastank
“Same Direction”

This song is great to play. You’ll have a lot of fun with it.
It’s in drop D.
E
B
G
D
A
D

/ = Slide Down

Here is the Intro.

Intro

E-------------------------0------------0-----------------------/----------------------0------------0-------------------/
B--------------------3--------0---3-------3-------------------/------------------3-------0---3-------3---------------/
G---------------------------------------------------------------/--------------------------------------------------------/
D----2---2---2------------------------------------------------/-----0---0---0-----------------------------------------/
A---------------------------------------------------------------/--------------------------------------------------------/
D---------------------------------------------------------------/--------------------------------------------------------/

E---------------------- -----0------------0---------------------/-----------------------0----------0---2/----------------/
B-----------------------3--------0---3-------3----------------/-------------------3-------------------------------------/
G---------------------------------------------------------------/----------------------------------------------------------/
D---------------------------------------------------------------/------------------------------0--------------------------/
A----4---4---4-------------------------------------------------/----3---3---3------------------------------------------/
D---------------------------------------------------------------/---------------------------------------------------------/

“HEY!!!”

Riff A

E---------------------3---3---3-------------------3---3---3---------------3---------------/
B---------------------3---3---3-------------------3---3---3---------------3---------------/
G--------------------------------------------------------------------------------------------/
D----2---2---2--------------------2---2---2--------------------2---2---------------------/
A----2---2---2--------------------2---2---2--------------------2---2---------------------/
D----2---2---2--------------------2---2---2--------------------2---2---------------------/

E----------------------------------------------------------------------------------------/
B----------------------------------------------------------------------------------------/
G----------------------------------------------------------------------------------------/
D----0---0---0-----4---4---4-------0---0---0-----4---4---4------0---0------4/----/
A----0---0---0----------------------0---0---0----------------------0---0------------/
D----0---0---0----------------------0---0---0----------------------0---0------------/



E-----------------------------------------------------------------------------------------/
B-----------------------------------------------------------------------------------------/
G-----------------------------------------------------------------------------------------/
D----7---7---7------5---5---5-----7---7---7----5---5---5-----7---7------5----------/
A----7---7---7---------------------7---7---7--------------------7---7-----------------/
D----7---7---7---------------------7---7---7--------------------7---7-----------------/

E-----------------------------------------------------------------------------------------/
B-----------------------------------------------------------------------------------------/
G-----------------------------------------------------------------------------------------/
D----10---10---10------2---2---2-----0---0---0-----4---4---4------0---0-----4----/
A----10---10---10---------------------0---0---0----------------------0---0----------/
D----10---10---10---------------------0---0---0----------------------0---0----------/


Next, the song will play the intro twice, then go into this.

Chorus

E-------------------3---3---3--------------------3---3---3-----------------3-----------/
B-------------------3---3---3--------------------3---3---3-----------------3-----------/
G-----------------------------------------------------------------------------------------/
D----2---2---2-------------------2---2---2----------------------2---2-----------------/
A----2---2---2-------------------2---2---2----------------------2---2-----------------/
D----2---2---2-------------------2---2---2----------------------2---2-----------------/

E-----------------------------------------------------------------------------------------/
B-----------------------------------------------------------------------------------------/
G-----------------------------------------------------------------------------------------/
D----0---0---0------4---4---4-----0---0---0-----4---4---4-----0---0----4/----------/
A----0---0---0---------------------0---0---0---------------------0---0----------------/
D----0---0---0---------------------0---0---0---------------------0---0----------------/
[ Tab from: http://www.guitartabs.cc/tabs/h/hoobastank/same_direction_tab_ver_2.html ]
E--------------------------------------------------------------------------------------------------------------/
B--------------------------------------------------------------------------------------------------------------/
G--------------------------------------------------------------------------------------------------------------/
D----7--7--7--7--7--7--7--7--7--7--7--7--7--7--7--7------10--10--10--10--10--10--10--10--------/
A----7--7--7--7--7--7--7--7--7--7--7--7--7--7--7--7------10--10--10--10--10--10--10--10--------/
D----7--7--7--7--7--7--7--7--7--7--7--7--7--7--7--7------10--10--10--10--10--10--10--10--------/

E-------------------------------------------------/
B------------------------------------------------/
G------------------------------------------------/
D----12--12--12-------5--5--5--5--5---------/
A----12--12--12-------5--5--5--5--5---------/
D----12--12--12-------5--5--5--5--5---------/

Repeat this twice for the chorus.
Now It’s going to play the intro twice more.
Then It will play the chorus again, and then go into this.

Riff B

E------------------3--3--3------------------3--3--3--------------3-------------/
B------------------3--3--3------------------3--3--3--------------3-------------/
G---------------------------------------------------------------------------------/
D----2--2--2------------------2--2--2-------------------2--2------------------/
A----2--2--2------------------2--2--2-------------------2--2------------------/
D----2--2--2------------------2--2--2-------------------2--2------------------/

E------------------3--3--3------------------3--3--3--------------3-------------/
B------------------3--3--3------------------3--3--3--------------3-------------/
G---------------------------------------------------------------------------------/
D----2--2--2------------------2--2--2-------------------2--2------------------/
A----2--2--2------------------2--2--2-------------------2--2------------------/
D----2--2--2------------------2--2--2-------------------2--2------------------/

E------------------3--3--3------------------3--3--3--------------3-------------/
B------------------3--3--3------------------3--3--3--------------3-------------/
G---------------------------------------------------------------------------------/
D----2--2--2------------------2--2--2-------------------2--2------------------/
A----2--2--2------------------2--2--2-------------------2--2------------------/
D----2--2--2------------------2--2--2-------------------2--2------------------/

E------------------3--3--3------------------3--3--3--------------0-------------/
B------------------3--3--3------------------3--3--3--------------0-------------/
G---------------------------------------------------------------------------------/
D----2--2--2------------------2--2--2-------------------2--2------------------/
A----2--2--2------------------2--2--2-------------------2--2------------------/
D----2--2--2------------------2--2--2-------------------2--2------------------/

Riff C
Play this twice
E---------------------------------------------------------------------------------/
B---------------------------------------------------------------------------------/
G---------------------------------------------------------------------------------/
D----2--0--2--2--2--2--2--2--2--2--2--2--2--2--2--2-----------------------/
A----2--0--2--2--2--2--2--2--2--2--2--2--2--2--2--2-----------------------/
D----2--0--2--2--2--2--2--2--2--2--2--2--2--2--2--2-----------------------/

E---------------------------------------------------------------------------------/
B---------------------------------------------------------------------------------/
G---------------------------------------------------------------------------------/
D----2--0--0--0--0--0--0--0--0--0--0--0--0--0--0--0-----------------------/
A----2--0--0--0--0--0--0--0--0--0--0--0--0--0--0--0-----------------------/
D----2--0--0--0--0--0--0--0--0--0--0--0--0--0--0--0-----------------------/






E---------------------------------------------------------------------------------/
B---------------------------------------------------------------------------------/
G---------------------------------------------------------------------------------/
D----7--7--7--7--7--7--7--7--7--7--7--7--7--7--7--7-----------------------/
A----7--7--7--7--7--7--7--7--7--7--7--7--7--7--7--7-----------------------/
D----7--7--7--7--7--7--7--7--7--7--7--7--7--7--7--7-----------------------/

E----------------------------------------------------------------------------------------/
B----------------------------------------------------------------------------------------/
G----------------------------------------------------------------------------------------/
D----10--10--10--10--10--10--10--10-----12--12--12------5--5--5--5--5-------/
A----10--10--10--10--10--10--10--10-----12--12--12------5--5--5--5--5-------/
D----10--10--10--10--10--10--10--10-----12--12--12------5--5--5--5--5-------/

Then go back into the first half of the intro.
Then the chorus for the end of the song.
Comments