Hoobastank - Running Away Chords & Tabs

 

Running Away Chords & Tabs

Hoobastank Chords & Tabs

Version: 7 Type: Tab 0 ratings
1 star 2 stars 3 stars 4 stars 5 stars
comments

Running Away Tab

   
i saw all the other running away tabs and their all crap , their rong 
so i thought i would correct that    here it is

-=(Hoobastank)=-
Running Away


intro (clean)
-----------------------------------------------
-----------------------------------------------
-555-444-555-444-000-555-000-555-4-------------
-777-777-777-777-555-555-333-333-3-------------
-777-777-777-777-555-555-333-333-3-------------
-----------------------------------------------


Verse (Tidbit of distortion)

-----------------------------------------------
-----------------------------------------------
-555-444-555-444-000-555-000-555-4-------------
-777-777-777-777-555-555-333-333-3-------------
-777-777-777-777-555-555-333-333-3-------------
-----------------------------------------------

Chorus (Go angry with your distortion)
[ Tab from: http://www.guitartabs.cc/tabs/h/hoobastank/running_away_tab_ver_7.html ]
-----------------------------------------------
-----------------------------------------------
-----------------------------------------------
-222-444-555-777-22222-555---------------------
-000-222-333-555-00000-333-555-----------------
---------------------------333-----------------

-----------------------------------------------
-----------------------------------------------
-----------------------------------------------
--222------55555-----555-----------------------
--000-222--33333-222-333-555-------------------
------000--------000-----333-------------------

Other part (Clean)

is it me , is it you.....
        A minor

nothing that i can do...
       E major

Is it a...... 
  E minor

Wast of time..
  u know

Then that part gets electric, just play 5th fret on the low e 
and 7th on the A string.  Then open on low e and then 2 on a

..-im to lazy to type that in tab form-..

Then back to the chorus

HOOBASTANK IS GOD


Comments