Hoobastank - Running Away Chords & Tabs

 

Running Away Chords & Tabs

Hoobastank Chords & Tabs

Version: 6 Type: Tab 0 ratings
1 star 2 stars 3 stars 4 stars 5 stars
comments

Running Away Tab

-------------------------------------------------------------------------------
                      RUNNING AWAY - Hoobastank
-------------------------------------------------------------------------------

By:  Gary(TheAtaris07@aol.com)
     
DROP D TUNING!

~ - let ring out
/ \ - slide
x
x - scratching
x
7x
7x - mute after strumming
7x


Intro/Verse:
e|---------------------------------------------------------------------------|
B|---------------------------------------------------------------------------|
G|---------------------------------------------------------------------------|
D|--10-10-10-9-----9-9-9-9-----10-10-10-9-----9-9-9-9-----5-5-5-7-----9-9-9-9|
A|---7--7--7-7-----7-7-7-7------7--7--7-7-----7-7-7-7-----5-5-5-5-----5-5-5-5|
D|7--7--7--7-7--7--7-7-7-7--7---7--7--7-7--7--7-7-7-7--7--5-5-5-5--5--5-5-5-5|

Intro/Verse Cont'd:                    (Listen for this chord)
e|------------------------------------|----0~--------------------------------|
B|------------------------------------|----5~--------------------------------|
G|---------------5-5-5-4--------------|----4~--------------------------------|
D|---3-3-3-5-----5-5-5-5--------------|----5~--------------------------------|
A|---3-3-3-3-----3-3-3-3--------------|----3~--------------------------------|
D|5--3-3-3-3--3-----------------------|--------------------------------------|

Verse:  (Repeat Intro)  I don't want you to give it all up
                        Leave your own life collecting dust
                        And I don't want you to feel sorry for me
                        You never gave us the chance to be
                        And I don't need you to be by my side
                        And tell me that everything's alright
                        I just wanted you to tell me the truth
                        You know I'd do that for you

End of Verse:  (Comes in after 5th fret chord, also known as G)
e|---------------------------------------------------------------------------|
B|---------------------------------------------------------------------------|
G|---------------------------------------------------------------------------|
D|3-3-3-3-3-3-x-x-x-x-x-x----------------------------------------------------|
A|3-3-3-3-3-3-x-x-x-x-x-x----------------------------------------------------|
D|3-3-3-3-3-3-x-x-x-x-x-x----------------------------------------------------|

Chorus:  "So why are you running away..."
e|---------------------------------------------------------------------------|
B|---------------------------------------------------------------------------|
G|2-2-2-2-2-2-4-4-4-4-4-4-5-5-5-5-5-5----------------------------------------|
D|2-2-2-2-2-2-4-4-4-4-4-4-5-5-5-5-5-5-5-5-5-5-5-5-3-3-3-3-3-3-3-3-3-3-3-3----|
A|0-0-0-0-0-0-2-2-2-2-2-2-3-3-3-3-3-3-5-5-5-5-5-5-3-3-3-3-3-3-3-3-3-3-3-3----|
D|------------------------------------5-5-5-5-5-5-3-3-3-3-3-3-3-3-3-3-3-3----|

Chorus Cont'd:
e|---------------------------------------------------------------------------|
B|---------------------------------------------------------------------------|
G|5-5-5-5-5-5-------------2-2-2-2-2-2-------------5-5-5-5-5-5----------------|
D|5-5-5-5-5-5-5-5-5-5-5-5-2-2-2-2-2-2-2-2-2-2-2-2-5-5-5-5-5-5-0-0-0-0-0-0----|
A|3-3-3-3-3-3-5-5-5-5-5-5-0-0-0-0-0-0-2-2-2-2-2-2-3-3-3-3-3-3-0-0-0-0-0-0----|
D|------------5-5-5-5-5-5-------------2-2-2-2-2-2-------------0-0-0-0-0-0----|

Chorus Cont'd:
e|---------------------------------------------------------------------------|
B|---------------------------------------------------------------------------|
G|5-5-5-5-5-5----------------------------------------------------------------|
D|5-5-5-5-5-5-5-5-5-5-5-5----------------------------------------------------|
A|3-3-3-3-3-3-5-5-5-5-5-5----------------------------------------------------|
D|------------5-5-5-5-5-5----------------------------------------------------|
[ Tab from: http://www.guitartabs.cc/tabs/h/hoobastank/running_away_tab_ver_6.html ]
Interlude:  (4x)
e|------0--------------------------------------------------------------------|
B|--1-----1------------------------------------------------------------------|
G|2---2-----2----------------------------------------------------------------|
D|---------------------------------------------------------------------------|
A|---------------------------------------------------------------------------|
D|---------------------------------------------------------------------------|

Repeat Verse:  Was I good enough to show you that I
               Was willing to give and sacrifice
               And I was the one who was lifting you up
               When you'd thought your life had had enough
               When I get close, you turn away
               There's nothing that I can do or say
               So now I need you to tell me the truth
               You know I'd do that for you

2nd Verse:  Guitar 2
e|--------------------------------------------------------------------------|
B|--------------------------------------------------------------------------|
G|14~---12~---10~---9~---7~---5~--7-9~---9/10-7~---5~-----------------------|
D|-x-----x-----x----x----x----x---x-x----x--x-x----x------------------------|
A|12~---10~----8~---7~---5~---3~--5-7~---7/-8-5~---3~-----------------------|
D|--------------------------------------------------------------------------|

Repeat Chorus

2nd Bridge:  Guitar 1(4x)
e|------0-----------0-----------0-----------0-----------0-----------0--------|
B|--1-----1-----1-----1-----1-----1-----1-----1------------------------------|
G|2---2-----2-2---2-----2-2---2-----2-2---2-----2---0-----0-----0-----0------|
D|------------------------------------------------2---2-----2-2---2-----2----|
A|---------------------------------------------------------------------------|
D|---------------------------------------------------------------------------|

2nd Bridge Cont'd:  Guitar 1 (4th chord played)
e|------0-----------0------|-------0-----------------------------------------|
B|-------------------------|-------------------------------------------------|
G|--0-----0-----0-----0----|---2-----2---------------------------------------|
D|2---2-----2-2---2-----2--|-0---0-----0-------------------------------------|
A|-------------------------|-------------------------------------------------|
D|-------------------------|-------------------------------------------------|

2nd Bridge:  Guitar 2  (Comes in on 2nd half of 2nd bar)
e|12~------------------------------------------------------------------------|
B|---------------------------------------------------------------------------|
G|---------------------------------------------------------------------------|
D|----------------------------------------------------x-x-x-x----------------|
A|----------------------------------------------------x-x-x-x----------------|
D|-----------------------Feedback----------Pickslide--x-x-x-x----------------|

Next Part:  "Is it you..."
e|---------------------------------------------------------------------------|
B|---------------------------------------------------------------------------|
G|---------------------------------------------------------------------------|
D|7-7-7\5-7x--7-7-7\5-7-7-7--2-2-2-0-2x--x-x-x-x-2-2-2-0-2-2-2/7-7-7-0-7x----|
A|7-7-7\5-7x--7-7-7\5-7-7-7--2-2-2-0-2x--x-x-x-x-2-2-2-0-2-2-2/7-7-7-0-7x----|
D|7-7-7\5-7x--7-7-7\5-7-7-7--2-2-2-0-2x--x-x-x-x-2-2-2-0-2-2-2/7-7-7-0-7x----|

Next Part Cont'd:
e|---------------------------------------------------------------------------|
B|---------------------------------------------------------------------------|
G|---------------------------------------------------------------------------|
D|7-7-7-0-7-7-7--0-0-0-0-0-0-0-0-0-0-0-0-3-3-3-3-3-3-5-5-5-5-5-5-------------|
A|7-7-7-0-7-7-7--0-0-0-0-0-0-0-0-0-0-0-0-3-3-3-3-3-3-5-5-5-5-5-5-------------|
D|7-7-7-0-7-7-7--0-0-0-0-0-0-0-0-0-0-0-0-3-3-3-3-3-3-5-5-5-5-5-5-------------|

Repeat Chorus

End On:
e|------|
B|------|
G|------|
D|--5~--|
A|--5~--|
D|--5~--|

Another Hoobie tab for you.  http://www.geocities.com/ggtabs07.
===============================================================================
Comments