Hoobastank - Running Away Chords & Tabs

 

Running Away Chords & Tabs

Hoobastank Chords & Tabs

Version: 5 Type: Tab 0 ratings
1 star 2 stars 3 stars 4 stars 5 stars
comments

Running Away Tab

TABLATURE 
SONG TITLE: RUNNING AWAY
ARTIST: HOOBASTANK
TABBED BY: DANIEL "Ace - A §pade§" Nist

Hey Everyone,

   This is Ace again with another great song. Now I am sure that
everyone and their grandmother has posted up a tab for Hoobastank's
"Crawling in the Dark." Ten bucks says each one of those tabs is 
wrong, but what can I say. Well since GuitarTabs probably won't let
me submit the 20th version of "Crawling in the Dark," I decided to
tab out "Running Away." This is a beautiful song that actually
sound better on acoustic live, than on electric. But anyway, enjoy
the tab and rock on. Keep your guitar in standard tuning. Take it
easy! Peace!

- Ace -

h = HAMMER ON
p = PULL OFF
s = SLIDE
x = MUTE

INTRO/VERSE:

PLAY THIS ONCE FOR THE INTRO.

PLAY THIS TWICE FOR EACH VERSE.

NOTE: PLAY THIS WITHOUT DISTORTION.

e|-0000---0000---0000---0000------------------|
B|-1111---0000---1111---0000---0000---0000----|
G|-2222---2222---2222---2222---0000---2222----|
D|-2222---2222---2222---2222---0000---0000----|
A|-0000---0000---0000---0000---2222---2222----|
E|-----------------------------3333---3333----|

e|-0000---0000--------------------------------|
B|-0000---1110--------------------------------|
G|-2222---2222--------------------------------|
D|-3333---3333--------------------------------|
A|-3333---3333--------------------------------|
E|--------------------------------------------|

CHORUS:

PLAY THIS TWICE FOR THE FIRST CHORUS AND SECOND CHORUS.

PLAY THIS FOUR TIMES FOR CHORUS THREE.

NOTE: PLAY THIS WITH HEAVY DISTORTION.

e|--------------------------------------------|
B|--------------------------------------------|
G|------------------555555--777777------------|
D|-777777--s999999--555555--777777------------|
A|-777777--s999999--333333--555555------------|
E|-555555--s777777----------------------------|

e|--------------------------------------------|
B|--------------------------------------------|
G|--------------------------------------------|
D|-333333333333--555555--555555---------------|
A|-333333333333--333333--555555---------------|
E|-111111111111----------333333---------------|

BRIDGE:

PLAY THIS FOUR TIMES BEFORE VERSE II:

NOTE: PLAY THIS PART WITHOUT DISTORTION.

e|--------------------------------------------|
B|--------------------------------------------|
G|-------9------------------------------------|
D|---7-----7----------------------------------|
A|-7---7--------------------------------------|
E|--------------------------------------------|
[ Tab from: http://www.guitartabs.cc/tabs/h/hoobastank/running_away_tab_ver_5.html ]
INTERLUDE PART ONE:

PLAY THIS TWICE:

NOTE PLAY THIS PART WITHOUT DISTORTION.

e|-----------|-----------|--------------------|
B|-----------|-----------|--------------------|
G|-------9---|-------9---|-------9------------|
D|---7-----7-|---7-----7-|---7-----7----------|
A|-7---7-----|-7---7-----|-7---7--------------|
E|-----------|-----------|--------------------|

e|-----------|-----------|--------------------|
B|-----------|-----------|--------------------|
G|-------9---|-----------|--------------------|
D|---7-----7-|-------9---|-------9------------|
A|-7---7-----|---7-----7-|---7-----7----------|
E|-----------|-7---7-----|-7---7--------------|

e|-----------|-----------|--------------------|
B|-----------|-----------|--------------------|
G|-----------|-----------|-------9------------|
D|-------9---|-------9---|---7-----7----------|
A|---7-----7-|---7-----7-|-7---7--------------|
E|-7---7-----|-7---7-----|--------------------|

e|-----------|-----------|--------------------|
B|-----------|-----------|--------------------|
G|-------9---|-------9---|-------9------------|
D|---7-----7-|---7-----7-|---7-----7----------|
A|-7---7-----|-7---7-----|-7---7--------------|
E|-----------|-----------|--------------------|

e|-----------|-----------|--------------------|
B|-----------|-----------|--------------------|
G|-------9---|-------9---|---------9----------|
D|---7-----7-|---7-----7-|----7------7--------|
A|-8---8-----|-8---8-----|-10---10------------|
E|-----------|-----------|--------------------|

e|--------------------------------------------|
B|--------------------------------------------|
G|---------9----------------------------------|
D|----7------7--------------------------------|
A|-10---10------------------------------------|
E|--------------------------------------------|

INTERLUDE PART TWO:

PLAY THIS TWICE:

NOTE PLAY THIS PART WITH HEAVY DISTORTION.

e|--------------------------------------------|
B|--------------------------------------------|
G|--------------------------------------------|
D|--------------------------------------------|
A|-777777---xxxxxx---777777---xxxxxx----------|
E|-555555---xxxxxx---555555---xxxxxx----------|

e|--------------------------------------------|
B|--------------------------------------------|
G|--------------------------------------------|
D|--------------------------------------------|
A|-222222---xxxxxx---222222---xxxxxx----------|
E|-000000---xxxxxx---000000---xxxxxx----------|

OUTRO:

LET LAST POWER CHORD OF THE LAST CHORUS RING OUT.
Comments