Hoobastank - Running Away Chords & Tabs

 

Running Away Chords & Tabs

Hoobastank Chords & Tabs

Version: 3 Type: Tab 1 rating
1 star 2 stars 3 stars 4 stars 5 stars
comments

Running Away Tab

   
Intro/Verse (Acoustic guitar)

  Am                G         F
---------------------------------------------------------------
--1--0-----1--0------------------------------------------------
--2--2-----2--2-----0--4------2--5-4---------------------------
--2--2-----2--2-----0--0------3--3-3---------------------------
--0--0-----0--0-----2--2------3--3-3---------------------------
--------------------3--3------1--------------------------------
These are just the chords listen to the song for the strumming 
technique.
[ Tab from: http://www.guitartabs.cc/tabs/h/hoobastank/running_away_tab_ver_3.html ]
Chorus (Electric)

-------------------------------------------------------
-------------------------------------------------------
------------5------------------3-----------------------
--7----9----5----5----1--------3-----------------------
--7----9----3----5----1--------5-----------------------
--5----7---------3----3--------------------------------

Bridge (Acoustic) repeated many times

---------0---------------
-----------1-------------
-------2-----2-----------
-----2-------------------
---0---------------------
-------------------------

By: Benny J, 2001
Comments