Hoobastank - Running Away Chords & Tabs

 

Running Away Chords & Tabs

Hoobastank Chords & Tabs

Version: 3 Type: Chords 0 ratings
1 star 2 stars 3 stars 4 stars 5 stars
comments

Running Away Chords

   
Chords
Am (0,1,2,2,0,0)
G  (1,0,0,0,2,3)
F  (0,1,2,3,3,x)
E  (0,0,1,2,2,0)
C  (0,1,0,2,3,x)
D  (2,3,2,0,0,x)

Verse/Intro: Am, G, F

Chorus : Am, E, C, D, F, C, G

Interlude 1
e|-------0-----------0-------|
B|-----0---0-------0---0-----|
G|---5-------5---5-------5---|
D|-7-----------7-----------7-|
A|---------------------------|
D|---------------------------|X2

Verse: Am, G, F
[ Tab from: http://www.guitartabs.cc/tabs/h/hoobastank/running_away_crd_ver_3.html ]
Interlude 2
e|-------0-----------0-------|
B|-----0---0-------0---0-----|
G|---5-------5---5-------5---|
D|-7-----------7-----------7-|
A|---------------------------|
D|---------------------------|X2

e|-------0-----------0-------|
B|-----0---0-------0---0-----|
G|---4-------4---4-------4---|
D|-5-----------5-----------5-|
A|---------------------------|
D|---------------------------|X2

Chorus : Am, E, C, D, F, C, G

Bridge : Am, E, Am, D, F, G

Chorus x2: Am, E, C, D, F, C, G

Listen to song for strumming patterns
Comments