Hoobastank - Running Away Chords & Tabs

 

Running Away Chords & Tabs

Hoobastank Chords & Tabs

Version: 2 Type: Bass Tab 0 ratings
1 star 2 stars 3 stars 4 stars 5 stars
comments

Running Away Bass Tab

Band- Hoobastank
Song- Running Away

Drop D tuning,

Intro (twice) (plays quiet with acoustic, but there is bass on this part)
G|--------------------------------------------------|
D|--------------------------------------------------|
A|--------------------------------------------------|
D|---7-7-7-7-----7-7-7-7----5-5-5-5-----3-3-3-3-----|


Verse
G|---------------------------------------------------|
D|------7-----7-----7----7--5-----5----5----3----3---|
A|---------------------------------------------------|
D|--7-7----77---7-7---77------5-5---55---33---33---33|

Chorus
First time through the chorus
G|-------------------------------------------|
D|-------------------------------------------|
A|-0-0-0-2-2-2-3-3-3-------------3-3-3-------|
D|-------------------0-0-0-3-3-3-------5-5-5-|

Second time through the chorus
G|---------------------------------------------|
D|---------------------------------------------|
A|0-0-0-------3-3-3-------------3-3-3----------|
D|------2-2-2-------0-0-0-3-3-3-------5-5-5----|

[ Tab from: http://www.guitartabs.cc/tabs/h/hoobastank/running_away_btab_ver_2.html ]
Bridge
G|--------------------------------------------|
D|------------------7-----------10------------|
A|---------------7-----5*-----8----8-10-------|
D|77-7-77-----7-------------------------10-12-|

G|----------------------------------9---12-9---|
D|---------------7----------------9---9------9-|
A|------------------5*--77-7-77----------------|
D|77-7-77-----7--------------------------------|

G|------------------------------------|
D|------------------7-----------------|
A|---------------7-----5*-------------|
D|77-7-77-----7--------------3*----5*-|

Breakdown
G|-------------------------------------------------------|
D|-------------------------------------------------------|
A|-------------------------------------------------------|
D|---7-7--7-77--XXX--7-7--7-77---2-2--2-22--2-2--2-22----|

G|-------------------------------------------------------|
D|-------------------------------------------------------|
A|-------------------------------------------------------|
D|---7-7--7-77----7-7--7-77------0-0-0-0---3-3-3-3-5-5---|

* = sustain/let ring
Comments