Hoobastank - Running Away Chords & Tabs

 

Running Away Chords & Tabs

Hoobastank Chords & Tabs

Version: 1 Type: Bass Tab 0 ratings
1 star 2 stars 3 stars 4 stars 5 stars
comments

Running Away Bass Tab

Verse (0:22-0:35)

G|------------------------------------------------------------------------------------------------------|
D|------------------------------------------------------------------------------------------3-----------|
A|---------------7---------------------------7----7/----------------------------------------------3-----|
E|--5-----5---5-------5-----5-5----5-----5-----5-----3---3-3-3-3----3-3-3------1-----1---1-----1--------|

G|------------------------------------------------------------------------------------------------------|
D|------------------------------------------------------------------------------------------------------|
A|---------------7---------------------------7----7/----------------------------------------------------|
E|--5-----5---5-------5-----5-5----5-----5-----5-----3---3-3---3-3----0----3---1-1-1-1-0-0-1-1-1-1-1-1--|


Chorus (0:36-0:50)

G|------------------------------------------------------------------------------------------------------|
D|------------------------------------------------------------------------------------------------------|
A|--0----0--0-2----2--2--3----3--3-5----5--5------------------3----3--3---------------------------------|
E|-------------------------------------------1----1--1-1----1------------3----3--3-5----5--5-0----0--0--|

G|----------------------------------------------------------------|
D|----------------------------------------------------------------|
A|--3----3--3-5----5--5----------------------3----3--3------------|
E|-----------------------1----1--1-1----1--1-----------3----3--3--|


Verse (0:54-1:22)

G|------------------------------------------------------------------------------------------------------|
D|------------------------------------------------------------------------------------------3-----------|
A|---------------7---------------------------7----7/----------------------------------------------3-----|
E|--5-----5---5-------5-----5-5----5-----5-----5-----3----3---3-3---0---3------1-----1---1-----1--------| x 3


Chorus (1:23-1:37)

G|------------------------------------------------------------------------------------------------------|
D|------------------------------------------------------------------------------------------------------|
A|--0----0--0-2----2--2--3----3--3-5----5--5------------------3----3--3---------------------------------|
E|-------------------------------------------1----1--1-1----1------------3----3--3-5----5--5-0----0--0--|

G|----------------------------------------------------------------|
D|----------------------------------------------------------------|
A|--3----3--3-5----5--5----------------------3----3--3------------|
E|-----------------------1----1--1-1----1--1-----------3----3--3--|


Bridge (1:44-2:05)
[ Tab from: http://www.guitartabs.cc/tabs/h/hoobastank/running_away_btab.html ]
G|--------------------------------------------------------5---------------------------------------------|
D|-----------------------------------7----------------3-------3---5-------------------------------------|
A|--------------------------------7-----0------(0)--------------------3---5-----------------------------|
E|--5-5---5---3-5--------------5-----------------------------------------------5-5---5---3-5------------|

G|--------------------------12---11--9------------------------------------------------------------------|
D|--7-7----------------7/9-----9--------------------------------------7---------------------------------|
A|-------5-7----(7)------------------------------------------------7-----0-----(0)----------------------|
E|----------------------------------------5-5---5---3-5---------5---------------------1---1---1---3---3-|


Pre Chorus (2:06-2:20)

G|-------------------------------------------------------------------------------------------------------|
D|-------------------------------------------------------------------------------------------------------|
A|-----------------------------------------------7-7---7---5-7------7-7---7---5-7-7----------------------|
E|--5-5---5---3-5---------5-5---5---3-5-5--3-----------------------------------------3----5-5---5---0-5--|

G|-----------------------------------------------------------------------|
D|-----------------------------------------------------------------------|
A|------------5---7-5----5----5---5-5---5---5-----------3----------------|
E|--5-5---5-----5-------------------------------1---1-----1-3---3-3-3-3--|


Chorus (2:21-2:57)

G|------------------------------------------------------------------------------------------------------|
D|------------------------------------------------------------------------------------------------------|
A|--0----0--0-2----2--2--3----3--3-5----5--5------------------3----3--3---------------------------------|
E|-------------------------------------------1----1--1-1----1------------3----3--3-5----5--5-0----0--0--|

G|----------------------------------------------------------------|
D|----------------------------------------------------------------|
A|--3----3--3-5----5--5----------------------3----3--3------------|
E|-----------------------1----1--1-1----1--1-----------3----3--3--|


G|------------------------------------------------------------------------------------------------------|
D|------------------------------------------------------------------------------------------------------|
A|--0----0--0-2----2--2--3----3--3-5----5--5------------------3----3--3---------------------------------|
E|-------------------------------------------1----1--1-1----1------------3----3--3-5----5--5-0----0--0--|

G|----------------------------------------------------------------|
D|----------------------------------------------------------------|
A|--3----3--3-5----5--5----------------------3----3--3------------|
E|-----------------------1----1--1-1----1--1-----------3----(3)---|




Comments