Hoobastank - Running Away Acoustic Live Chords & Tabs

 

Running Away Acoustic Live Chords & Tabs

Hoobastank Chords & Tabs

Version: 1 Type: Tab 0 ratings
1 star 2 stars 3 stars 4 stars 5 stars
comments

Running Away Acoustic Live Tab

   
------------------------------------------------------------------------
                 RUNNING AWAY (ACOUSTIC LIVE) - Hoobastank
------------------------------------------------------------------------

Tabbed by: Richad
Email: sleeping__awake_@hotmail.com

Tuning:DADGBe (Drop D)

Intro

e----------------------------------------|-----------------------------|
b----------------------------------------|-----------------------------|
g----------------------------------------|--------------------55-4-----|
d--10-10-10-7--9-9-9--10-10-10-7--9-9-9--|--7-7-7-5--5-5-5-3--xx-x-----|
a---7--7--7-7--7-7-7---7--7--7-7--7-7-7--|--5-5-5-5--3-3-3-3--xx-x-----|
d---7--7--7-7--7-7-7---7--7--7-7--7-7-7--|--5-5-5-5--3-3-3-3--33-3-----|


Verse 1

e--------------------------------------------|-----------------------------|
b--------------------------------------------|-----------------------------|
g--------------------------------------------|--------------------55-4-----|
d--10-10-10-7---9-9-9---10-10-10-7---9-9-9---|--7-7-7-5--5-5-5-3--xx-x-----|
a---7--7--7-7---7-7-7----7--7--7-7---7-7-7---|--5-5-5-5--3-3-3-3--xx-x-----|
d---7--7--7-7---7-7-7----7--7--7-7---7-7-7---|--5-5-5-5--3-3-3-3--33-3-----|

I don't want you to give it all up and leave your own life collecting dust

e---------------------------------------------------|--0-0-0-0--0-0-0-0----|
b---------------------------------------------------|--0-0-0-0--1-1-1-1----|
g---------------------------------------------------|--7-7-7-7--2-2-2-2----|
d--10-10-10-7--9-9-9--10-10-10-7--9-9-9-------------|--7-7-7-7--3-3-3-3----|
a---7--7--7-7--7-7-7---7--7--7-7--7-7-7-------------|--x-x-x-x--3-3-3-3----|
d---7--7--7-7--7-7-7---7--7--7-7--7-7-7-------------|--5-5-5-5--x-x-x-x----|

and I don't want you to feel sorry for me   you never gave us a chance to be


Verse 2

e---0---0----0--0----|
b---0---0h1--3--1----|
g---2---2----4--2----|
d---2---2----5--3----|
a---0---0----5--3----|
d---0---0----x--x----|

And I don't need you to be by my side
and tell me that everythings all right
I just wanted you to tell me the truth
You know I'd do that for you


Chorus 1

e----3-----3-----3-----3-----3-----3-----3-----|
b----3-----3-----3-----3-----3-----3-----3-----|
g----0-----0-----0-----2-----0-----0-----0-----|
d----2-----0-----2---0-0-----x-----2-----0-----|
a--0-0-----x---3-3-----0-----3-----3-----2-----|
d----x---2-2-----x-----x-----3-----x-----x-----|

So why are you running away?
Why are you running away?

(you can also strum all the chords in the 
chorus instead of picking those low notes)


(Play this after 1st chorus)
[ Tab from: http://www.guitartabs.cc/tabs/h/hoobastank/running_away_acoustic_live_tab.html ]
e---------0-----------0-----------0-----------0-------|
b-------0---0-------0---0-------0---0-------0---0-----|
g-----5-------5---5-------5---5-------5---5-------0---|
d---7-----------7-----------7-----------7-------------|
a-----------------------------------------------------|
d-----------------------------------------------------|


Verse 3 (same as verse 2)

I did enough to show you that I was willing to give andsacrafice
and I was the one who was lifting you up
when you thought your life had had enough
when I get close you turn away, nothing that I can do or say
so now I need you to tell me the truth
you know I would do that for you


Chorus 2 (same as chorus 1)

So why are you running away?
Why are you running away?


Bridge

(Strum this first chords lightly)

e---0------------------0--------------------|---0-------------0---0---0---|
b---0------------------0--------------------|---0-------------3---1---3---|
g---5------------------0--------------------|---5-------------2---2---4---|
d---7------------------2--------------------|---7-------------0---3---5---|
a---0------------------2--------------------|---0-------------0---3---5---|
d---x------------------x--------------------|---x-------------x---x---x---|

  Is it me? Is it you? Nothing that I can do To make you change your mind

e---0------------------0--------------------|---0-------------0---0---0---|
b---1------------------0--------------------|---1-------------3---1---3---|
g---2------------------0--------------------|---2-------------2---2---4---|
d---2------------------2--------------------|---2-------------0---3---5---|
a---0------------------2--------------------|---0-------------0---3---5---|
d---x------------------x--------------------|-----------------x---x---x---| 

  Is it me? Is it you?  Nothing that I can do    Is it a waste of time?

e---0---x-x-x---0-----0---x-x-x---0--------|---0---x-x-x---0----0---0---0-|
b---1---x-x-x---1-----0---x-x-x---0--------|---1---x-x-x---1----3---1---3-|
g---2---x-x-x---2-----0---x-x-x---0--------|---2---x-x-x---2----2---2---4-|
d---2---x-x-x---2-----2---x-x-x---2--------|---2---x-x-x---2----0---3---5-|
a---0---x-x-x---0-----2---x-x-x---2--------|---0---x-x-x---0----0---3---5-|
d---x---x-x-x---x-----x---x-x-x---x--------|---x---x-x-x---x----x---x---x-|
        
 Is it me?  Is it you?  Nothing that I can do to make you change your mind


Chorus 3 and 4 (same as chorus 1)

So why are you running away?
Why are you running away?


End with Am chord (reversed strum)

e---0---|
b---1---|
g---2---|
d---2---|
a---0---|
d---x---| 


| /  slide up
| \  slide down
| h  hammer-on
| p  pull-off
| ~  vibrato
| +  harmonic
| x  Mute note
============================================================================
Comments