Hoobastank - Remember Me Chords & Tabs

 

Remember Me Chords & Tabs

Hoobastank Chords & Tabs

Version: 4 Type: Tab 0 ratings
1 star 2 stars 3 stars 4 stars 5 stars
comments

Remember Me Tab

   
Band: Hoobastank
Song: Remember Me

Tuning: DROPPED D |-D-A-D-G-B-e-|

Verse Flanger
|---------------------------------|---------------------------------|
|---------------------------------|---------------------------------|
|-10---1010--10--1010--1010--10---|-9-9---9-9---9---9-9---9-9---9---|
|--7----7-7---7---7-7---7-7---7---|-7-7---7-7---7---7-7---7-7---7---|
|---------------------------------|---------------------------------|
|---------------------------------|---------------------------------|

|---------------------------------|---------------------------------|
|-8-8---8-8---8---8-8---8-8---8---|-6-6---6-6---6---5-5-5-5-5-5-5-5-|
|-7-7---7-7---7---7-7---7-7---7---|-5-5---5-5---5---5-5-5-5-5-5-5-5-|
|-5-5---5-5---5---5-5---5-5---5---|-3-3---3-3---3---X-X-X-X-X-X-X-X-|
|---------------------------------|---------------3-3-3-3-3-3-3-3-3-|
|---------------------------------|---------------------------------|

|---------------------------------|---------------------------------|
|---------------------------------|---------------------------------|
|-10---1010--10--1010--1010--10---|-9-9---9-9---9---9-9---9-9---9---|
|--7----7-7---7---7-7---7-7---7---|-7-7---7-7---7---7-7---7-7---7---|
|---------------------------------|---------------------------------|
|---------------------------------|---------------------------------|
                                                  Distortion
|---------------------------------|---------------------------------|
|-8-8---8-8---8---8-8---8-8---8---|-6-6---6-6---6-------------------|
|-7-7---7-7---7---7-7---7-7---7---|-5-5---5-5---5---5---------------|
|-5-5---5-5---5---5-5---5-5---5---|-3-3---3-3---3---5---------------|
|---------------------------------|-----------------3---------------|
|---------------------------------|---------------0-----------------|

Pre Chorus                      2 Times
|---------------------------------|---------------------------------|
|---------------------------------|---------------------------------|
|-------------------------5/7\5---|-------------------------5/7\5---|
|-------------------------5/7\5---|-------------------------5/7\5---|
|-0-1210-0-1012-0---3-5-0-3/5\3-5-|-0-1210-0-1012-0---3-5-0-3/5\3-3-|
|-0-1210-0-1012-0---3-5-0-------5-|-0-1210-0-1012-0---3-5-0-------3-|

Chorus   3s and 10 are Harmonic 2 Times
|---------------------------------|---------------------------------|
|---------------------------------|---------------------------------|
|-----------------------------5---|-5-----------5-5----------5--/---|
|-0-0---------0-0---------0---5---|-5-----------5-5-10101010-5--/---|
|-0-0-3-3-3-3-0-0-3-3-3-3-0---3---|-3---3-3-3-3-3-3-10101010-3--/---|
|-0-0-3-3-3-3-0-0-3-3-3-3-0-------|-----------------10101010--------|

|---------------------------------|---------------------------------|
|---------------------------------|---------------------------------|
|---------------------------------|---------------------------------|
|-10------10--/---12------12--\---|---------------------------------|
|--8-------8--/---10------12--\---|-0----10-----0----10-----0--10-\-|
|--8-------8--/---10------12--\---|-0----10-----0----10-----0--10-\-|

Verse Flanger
|---------------------------------|---------------------------------|
|---------------------------------|---------------------------------|
|-10---1010--10--1010--1010--10---|-9-9---9-9---9---9-9---9-9---9---|
|--7----7-7---7---7-7---7-7---7---|-7-7---7-7---7---7-7---7-7---7---|
|---------------------------------|---------------------------------|
|---------------------------------|---------------------------------|

|---------------------------------|---------------------------------|
|-8-8---8-8---8---8-8---8-8---8---|-6-6---6-6---6---5-5-5-5-5-5-5-5-|
|-7-7---7-7---7---7-7---7-7---7---|-5-5---5-5---5---5-5-5-5-5-5-5-5-|
|-5-5---5-5---5---5-5---5-5---5---|-3-3---3-3---3---X-X-X-X-X-X-X-X-|
|---------------------------------|---------------3-3-3-3-3-3-3-3-3-|
|---------------------------------|---------------------------------|

|---------------------------------|---------------------------------|
|---------------------------------|---------------------------------|
|-10---1010--10--1010--1010--10---|-9-9---9-9---9---9-9---9-9---9---|
|--7----7-7---7---7-7---7-7---7---|-7-7---7-7---7---7-7---7-7---7---|
|---------------------------------|---------------------------------|
|---------------------------------|---------------------------------|
                                                  Distortion
|---------------------------------|---------------------------------|
|-8-8---8-8---8---8-8---8-8---8---|-6-6---6-6---6-------------------|
|-7-7---7-7---7---7-7---7-7---7---|-5-5---5-5---5---5---------------|
|-5-5---5-5---5---5-5---5-5---5---|-3-3---3-3---3---5---------------|
|---------------------------------|-----------------3---------------|
|---------------------------------|---------------0-----------------|

Pre Chorus                      2 Times
|---------------------------------|---------------------------------|
|---------------------------------|---------------------------------|
|-------------------------5/7\5---|-------------------------5/7\5---|
|-------------------------5/7\5---|-------------------------5/7\5---|
|-0-1210-0-1012-0---3-5-0-3/5\3-5-|-0-1210-0-1012-0---3-5-0-3/5\3-3-|
|-0-1210-0-1012-0---3-5-0-------5-|-0-1210-0-1012-0---3-5-0-------3-|
[ Tab from: http://www.guitartabs.cc/tabs/h/hoobastank/remember_me_tab_ver_4.html ]
Chorus   3s and 10 are Harmonic 
|---------------------------------|---------------------------------|
|---------------------------------|---------------------------------|
|-----------------------------5---|-5-----------5-5----------5--/---|
|-0-0---------0-0---------0---5---|-5-----------5-5-10101010-5--/---|
|-0-0-3-3-3-3-0-0-3-3-3-3-0---3---|-3---3-3-3-3-3-3-10101010-3--/---|
|-0-0-3-3-3-3-0-0-3-3-3-3-0-------|-----------------10101010--------|

|---------------------------------|---------------------------------|
|---------------------------------|---------------------------------|
|---------------------------------|---------------------------------|
|-10------10--/---12------12--\---|---------------------------------|
|--8-------8--/---10------12--\---|-0----10-----0----10-----0--10-\-|
|--8-------8--/---10------12--\---|-0----10-----0----10-----0--10-\-|

|---------------------------------|---------------------------------|
|---------------------------------|---------------------------------|
|-----------------------------5---|-5-----------5-5----------5--/---|
|-0-0---------0-0---------0---5---|-5-----------5-5-10101010-5--/---|
|-0-0-3-3-3-3-0-0-3-3-3-3-0---3---|-3---3-3-3-3-3-3-10101010-3--/---|
|-0-0-3-3-3-3-0-0-3-3-3-3-0-------|-----------------10101010--------|

|---------------------------------|---------------------------------|
|---------------------------------|---------------------------------|
|---------------------------------|---------------------------------|
|-10------10--/---12------12--\---|---------------------------------|
|--8-------8--/---10------12--\---|-0----10-----0----10-----0--10---|
|--8-------8--/---10------12--\---|-0----10-----0----10-----0--10---|
                              
                               2 Times
|---------------------------------|
|---------------------------------|
|---------------------------------|
|---------------------------------|
|-0----10-----0----10-----0--10---|
|-0----10-----0----10-----0--10---|

|---------------------------------|
|---------------------------------|
|---------------------------------|
|---------------------------------|
|-0----10-----0----10-----0--10-\-|
|-0----10-----0----10-----0--10-\-|

Interlude Flanger               3 Times
|---------------------------------|---------------------------------|
|---------------------------------|---------------------------------|
|-10---1010--10--1010--1010--10---|-9-9---9-9---9---9-9---9-9---9---|
|--7----7-7---7---7-7---7-7---7---|-7-7---7-7---7---7-7---7-7---7---|
|---------------------------------|---------------------------------|
|---------------------------------|---------------------------------|
                                                    Distortion
|---------------------------------|---------------------------------|
|---------------------------------|---------------------------------|
|-10---1010--10--1010--1010--10---|-9-9---9-9---9---5---------------|
|--7----7-7---7---7-7---7-7---7---|-7-7---7-7---7---5---------------|
|---------------------------------|-----------------3---------------|
|---------------------------------|---------------0-----------------|

Bridge those are 10s           4 Times
|---------------------------------|
|---------------------------------|
|---------------------------------|
|-0-0-0101010-0-0-0101010-0-01010-|
|-0-0-0101010-0-0-0101010-0-01010-|
|-0-0-0101010-0-0-0101010-0-01010-|

Chorus   3s and 10 are Harmonic 
|---------------------------------|---------------------------------|
|---------------------------------|---------------------------------|
|-----------------------------5---|-5-----------5-5----------5--/---|
|-0-0---------0-0---------0---5---|-5-----------5-5-10101010-5--/---|
|-0-0-3-3-3-3-0-0-3-3-3-3-0---3---|-3---3-3-3-3-3-3-10101010-3--/---|
|-0-0-3-3-3-3-0-0-3-3-3-3-0-------|-----------------10101010--------|

|---------------------------------|---------------------------------|
|---------------------------------|---------------------------------|
|---------------------------------|---------------------------------|
|-10------10--/---12------12--\---|---------------------------------|
|--8-------8--/---10------12--\---|-0----10-----0----10-----0--10-\-|
|--8-------8--/---10------12--\---|-0----10-----0----10-----0--10-\-|

|---------------------------------|---------------------------------|
|---------------------------------|---------------------------------|
|-----------------------------5---|-5-----------5-5----------5--/---|
|-0-0---------0-0---------0---5---|-5-----------5-5-10101010-5--/---|
|-0-0-3-3-3-3-0-0-3-3-3-3-0---3---|-3---3-3-3-3-3-3-10101010-3--/---|
|-0-0-3-3-3-3-0-0-3-3-3-3-0-------|-----------------10101010--------|

|---------------------------------|---------------------------------|
|---------------------------------|---------------------------------|
|---------------------------------|---------------------------------|
|-10------10--/---12------12--\---|---------------------------------|
|--8-------8--/---10------12--\---|-0----10-----0----10-----0--10---|
|--8-------8--/---10------12--\---|-0----10-----0----10-----0--10---|
                              
                                                                 
|---------------------------------|---------------------------------|
|---------------------------------|---------------------------------|
|---------------------------------|---------------------------------|
|---------------------------------|-0-0-0101010-0-0-0101010-0-01010-|
|-0----10-----0----10-----0--10---|-0-0-0101010-0-0-0101010-0-01010-|
|-0----10-----0----10-----0--10---|-0-0-0101010-0-0-0101010-0-01010-|

|---------------------------------|
|---------------------------------|
|---------------------------------|
|-0-0-0101010-0-0-0101010-0-10----|
|-0-0-0101010-0-0-0101010-0-10----|
|-0-0-0101010-0-0-0101010-0-10----|
Comments