Hoobastank - Ready For You Chords & Tabs

 

Ready For You Chords & Tabs

Hoobastank Chords & Tabs

Version: 1 Type: Tab 0 ratings
1 star 2 stars 3 stars 4 stars 5 stars
comments

Ready For You Tab

Ready For You
Hoobastank
Album: Hoobastank
Tabbed by: H. Negron
Standard Tuning

Yo! Im doing this tab without my guitar...so maybe this have some
wrong parts...It will help you to get started..Here goes!
Listen to the song for the strum times

Intro riff

e--------------------------------------------------------------
b--------------------------------------------------------------  x2
g---8--8--8--8/-9--9--9--9/11--11--11--11\9--9---9-------------
d--------------------------------------------------------------
a---6--6--6--6/-7--7--7--7/ 9---9---9---9\7--7---7-------------
e--------------------------------------------------------------


Verse Part 1 (palm muted)Check the song for strummin/muting pattern
"Go on..............................Useless"
e--------------------------------------------------------------
b--------------------------------------------------------------
g--4--4--4---------------------------6--6--6-------------------------
d--4--4--4---------------------------5--5--5------------------------
a--2--2--2---------------------------5--5--5-------------------------
e------------------------------------7--7--7----------------------

Check song for strumming times!!!

"Well in fact...................near" (Remember the palm Muting)

e------------------------------------------------|---------------------------
b------------------------------------------------|--------------------------
g------------------------------------------------|--13--13--13-13-13-13\-4---
d--5--5--5--5-------------------2--2-------------|-----------------------4---
a--5--5--5--5-------------------2--2-------------|--11--11--11-11-11-11\-2---
e--3--3--3--3-------------------0--0-------------|---------------------------
                                                    Sliding part between Verses

Verse Part 2 (palm muting)
[ Tab from: http://www.guitartabs.cc/tabs/h/hoobastank/ready_for_you_tab.html ]
"So now........................distance"
e------------------------------------------------------------
b------------------------------------------------------------
g--2--2--2--2-------------------6-6-6-6----------------------
d--4--2--2--2-------------------5-5-5-5----------------------
a--4--4--4--4-------------------5-5-5-5----------------------
e-------------------------------7-7-7-7----------------------

"Life is..........................protectant" (palm Muting)
e--------------------------------------------------------------
b--------------------------------------------------------------
g--------------------------------------------------------------
d--2--------2-----2-----2--------------------------------------
a--2--------2-----2-----2--------------------------------------
e--0--------0-----0-----0--------------------------------------

"Make it crystal clear" No pm Check song for strumming times

e--------------------------------------------------------------
b--------------------------------------------------------------
g--------------------------------------------------------------
d--5--5--5--5/--7--7--7----------------------------------------
a--5--5--5--5---7--7--7----------------------------------------
e--3--3--3--3/--5--5--5----------------------------------------

Chorus:
"Ill be around, only if you want me to"
 Be there by your side, Im ready for you
(play verse part 1 without palm mute. Check song for strumming pattern

"Dont be afraid, I know what youre going through"
 When you think its time, Im ready for you
(play verse part 2 without palm mute)


Repeat Intro riff x1


Second verse
"Now you............content with"
 What side............keep"
(play like Verse part 1 palm muted) And Sliding part Between the Verses

"Slow down.................roses"
"But....................unfair"
(play like verse part 2 palm muted) (listen to song for strumming times)

Chorus

Sliding part x2

Interlude (same as chorus but without distortion)

Chorus "Dont be afraid......

End with Intro riff x1


And thats it!!!
Its not perfect, but I hope it help you out.
Any comments--------Lawless_and_lulu@hotmail.com
Comments