Hoobastank - Pieces Chords & Tabs

 

Pieces Chords & Tabs

Hoobastank Chords & Tabs

Version: 2 Type: Tab 0 ratings
1 star 2 stars 3 stars 4 stars 5 stars
comments

Pieces Tab

   
Hey everyone here is pieces it is 100% correct
e-mail for questions Fadetoblack4242@aol.com
it is tuned
1=E
2=B
3=G sharp
4=E
5=B
6=E

%= repeat measure


|-------7--------7--------7--------------------------------------------|
|-------8--------8--------8--------------------------------------------|
|------10-------10-------10----(repeat)--------------------------------|
|--0-0------0-0------0-0-----------------------------------------------|
|----------------------------------------------------------------------|
|----------------------------------------------------------------------|


|------------7-------7-------7-------------0-0-0-0-0-0-0-0-------------|
|------------8-------8-------8-------------0-0-0-0-0-0-0-0-------------|
|-----------10------10------10---(repeat)--0-0-0-0-0-0-0-0-------------|
|------------------------------------------0-0-0-0-0-0-0-0-------------|
|-------0-0-----0-0-----0-0--------------------------------------------|
|-7\----0-0-----0-0-----0-0--------------------------------------------|

[ Tab from: http://www.guitartabs.cc/tabs/h/hoobastank/pieces_tab_ver_2.html ]
%---------------------------------------------------------------------------------------%
%---------------------------------------------------------------------------------------%
%-----------------------------------------------------11-11-----------------------------%
%-----------------------------------------------------10-10-----------------------------%
%-10/12--12--12--12--6--6--6--6--5--5--5--5--0--0--0--8---8--------3-------5--5---------%
%-10/12--12--12--12--6--6--6--6--5--5--5--5--0--0--0--8---8--8--8--3--0-0--5--5--0--0---%

                 I, like a punk rock, sink,
|-------------------------------------------------------------------------------|
|-------------------------------------------------------------------------------|
|-------------------------------------------------------------------------------|
|-10/12--12--12------------------------------10/12--12--12--12--6-5--6-5--6-5---|
|-10/12--12--12--6\--------------------------10/12--12--12--12--6-5--6-5--6-5---|
|-10/12--12--12--6\--------------------------10/12--12--12--12--6-5--6-5--6-5---|


|----------------------------------------------------------------------------------|
|----------------------------------------------------------------------------------|
|----------------------------------------------------------------------------------|
|-10-------10--------3--------5----------------------------------------------------|
|--8--------8--------3--------5----------------------------------------------------|
|--8--8--8--8--0--0--3--0--0--5--0--0----------------------------------------------|

that is basically it
Comments