Hoobastank - Pieces Chords & Tabs

 

Pieces Chords & Tabs

Hoobastank Chords & Tabs

Version: 1 Type: Tab 0 ratings
1 star 2 stars 3 stars 4 stars 5 stars
comments

Pieces Tab

   
-------------------------------------------------------------------------------
		          PIECES - Hoobastank
-------------------------------------------------------------------------------

By:  Greg(Reelbigfish23@hotmail.com)
     Gary(TheAtaris07@aol.com)

~ - let ring out
... - palm mute
/ \ - slide
7x
7x - mute after strumming
5x

Intro:
e|---------------------------------------------------------------------------|
B|----12-----12-----12-----12-----12-----12-----12---------------------------|
G|-----9------9------9------9------9------9------9---------------------------|
D|---------------------------------------------------------------------------|
A|7-7----7-7----7-7----7-7----7-7----7-7----7-7------------------------------|
E|-------------------------------------------------12/-----------------------|
  ...    ...    ...    ...    ...    ...    ...

Intro Cont'd:
e|---------------------------------------------------------------------------|
B|----12-----12-----12-----12-----12-----12-----12---------------------------|
G|-----9------9------9------9------9------9------9--(Then he does a weird----|
D|-------------------------------------------------------effect thing)-------|
A|---------------------------------------------------------------------------|
E|0-0----0-0----0-0----0-0----0-0----0-0----0-0------------------------------|
  ...    ...    ...    ...    ...    ...    ...

2nd Intro Part:  (2x)
e|---------------------------------------------------------------------------|
B|-------------------------------------------------12------12----------------|
G|7/9-9-9-9---------------------7/9-9-9-9-----------9-------9-7/9-9-9-9------|
D|7/9-9-9-9-8-8-8\7-7-7-7-2-2-2-7/9-9-9-9-8-8-8\7x----8\7x----7/9-9-9-9------|
A|5/7-7-7-7-8-8-8\7-7-7-7-2-2-2-5/7-7-7-7-8-8-8\7x----8\7x----5/7-7-7-7------|
E|----------6-6-6\5-5-5-5-0-0-0-----------6-6-6\5x----6\5x-------------------|

2nd Intro Part Cont'd:
e|---------------------------------------------------------------------------|
B|---------------------------------------------------------------------------|
G|--------------------5-5-5-5------------------------------------------------|
D|8-8-8\7-7-7-7-2-2-2-5-5-5-5-5-5-5-7-7-7-7----------------------------------|
A|8-8-8\7-7-7-7-2-2-2-3-3-3-3-5-5-5-7-7-7-7----------------------------------|
E|6-6-6\5-5-5-5-0-0-0---------3-3-3-5-5-5-5----------------------------------|
                        ...   ...   ...

Verse:  (2x)
e|---------------------------------------------------------------------------|
B|---------------------------------------------------------------------------|
G|7/9-9-9-9------7/9-9-9-9-----------------7/9-9-9-9------5-5-5-5------------|
D|7/9-9-9-9-8\---7/9-9-9-9-8x--8-7x--8-7x--7/9-9-9-9-8\---5-5-5-5-5-5-5-7-7-7|
A|5/7-7-7-7-8\---5/7-7-7-7-8x--8-7x--8-7x--5/7-7-7-7-8\---3-3-3-3-5-5-5-7-7-7|
E|----------6\-------------6x--6-5x--6-5x------------6\---3-3-3-3-3-3-3-5-5-5|
                                                            ...   ...   ...

Chorus:  "I can almost breath the air..."  (2x)
e|---------------------------------------------------------------------------|
B|---------------------------------------------------------------------------|
G|--------------------------------5-5-5-5-5-5-5-5-5-5-5-5-5-5-5-5------------|
D|2-2-2-2-2-2-2-2-2-2-2-2-2-2-2-2-5-5-5-5-5-5-5-5-5-5-5-5-5-5-5-5-7-7-7-7-7-7|
A|2-2-2-2-2-2-2-2-2-2-2-2-2-2-2-2-3-3-3-3-3-3-3-3-3-3-3-3-3-3-3-3-7-7-7-7-7-7|
E|0-0-0-0-0-0-0-0-0-0-0-0-0-0-0-0---------------------------------5-5-5-5-5-5|

Chorus Cont'd:
e|---------------------------------------------------------------------------|
B|---------------------------------------------------------------------------|
G|--------------------5-5-5-5-5-5-5-5-7-7-7-7-7-7-7-7------------------------|
D|7-7-7-7-7-7-7-7-7-7-5-5-5-5-5-5-5-5-7-7-7-7-7-7-7-7------------------------|
A|7-7-7-7-7-7-7-7-7-7-3-3-3-3-3-3-3-3-5-5-5-5-5-5-5-5------------------------|
E|5-5-5-5-5-5-5-5-5-5-----------------5-5-5-5-5-5-5-5------------------------|

Interlude:
e|---------------------------------------------------------------------------|
B|----------------------------------12-----12-----12-----12------------------|
G|7/9-9-9-9--------------------------9------9------9------9------------------|
D|7/9-9-9-9-8-8-8\7-7-7-7-2-2-2----------------------------------------------|
A|5/7-7-7-7-8-8-8\7-7-7-7-2-2-2-7-7----7-7----7-7----7-7---------------------|
E|----------6-6-6\5-5-5-5-0-0-0----------------------------------------------|
                                ...    ...    ...    ...

Repeat Verse

Repeat Chorus

Bridge:
e|---------------------------------------------------------------------------|
B|----12-----12-----12-----12-----12-----12-----12-----12--------------------|
G|-----9------9------9------9------9------9------9------9--------------------|
D|---------------------------------------------------------------------------|
A|7-7----7-7----7-7----7-7----7-7----7-7----7-7----7-7-----------------------|
E|---------------------------------------------------------------------------|
  ...    ...    ...    ...    ...    ...    ...    ...
[ Tab from: http://www.guitartabs.cc/tabs/h/hoobastank/pieces_tab.html ]
Bridge Cont'd:
e|---------------------------------------------------------------------------|
B|----12-----------12-----------12-----------12------------------------------|
G|-----9-----7------9-----7------9-----7------9-----7------------------------|
D|-----------9------------9------------9------------9------------------------|
A|---------------------------------------------------------------------------|
E|0-0----0-0---0-0----0-0---0-0----0-0---0-0----0-0--------------------------|

Bridge Cont'd:
e|---------------------------------------------------------------------------|
B|----12-----------12-----------12-----------12------------------------------|
G|-----9-----7------9-----7------9-----7------9-----7------------------------|
D|-----------9------------9------------9------------9------------------------|
A|---------------------------------------------------------------------------|
E|8-8----8-8---8-8----8-8---8-8----8-8---8-8----8-8--------------------------|

Bridge Cont'd:
e|---------------------------------------------------------------------------|
B|----12-----------12-----------12-----------12------------------------------|
G|-----9-----7------9-----7------9-----7------9-----7------------------------|
D|-----------9------------9------------9------------9------------------------|
A|---------------------------------------------------------------------------|
E|0-0----0-0---0-0----0-0---0-0----0-0---0-0----0-0--------------------------|

Bridge Cont'd:
e|---------------------------------------------------------------------------|
B|----12-----------12-----------12-----------12------------------------------|
G|-----9-----7------9-----7------9-----7------9-----7------------------------|
D|-----------9------------9------------9------------9------------------------|
A|---------------------------------------------------------------------------|
E|8-8----8-8---8-8----8-8---8-8----8-8---8-8----8-8--------------------------|

Bridge Cont'd:
e|---------------------------------------------------------------------------|
B|----12-----12-----12-----12-----12-----12-----12-----12--------------------|
G|-----9------9------9------9------9------9------9------9--------------------|
D|---------------------------------------------------------------------------|
A|---------------------------------------------------------------------------|
E|0-0----0-0----0-0----0-0----0-0----0-0----0-0----0-0-----------------------|
  ...    ...    ...    ...    ...    ...    ...    ...

Bridge Cont'd:
e|---------------------------------------------------------------------------|
B|---------------------------------------------------------------------------|
G|5-5-5-5-5-5-5-5-5-5-5-5----------------------------------------------------|
D|5-5-5-5-5-5-5-5-5-5-5-5-5-5-5-5-5-5-5-5-5-5-5-5----------------------------|
A|3-3-3-3-3-3-3-3-3-3-3-3-5-5-5-5-5-5-5-5-5-5-5-5----------------------------|
E|3-3-3-3-3-3-3-3-3-3-3-3-3-3-3-3-3-3-2-2-2-2-2-2----------------------------|
  ...   ...   ...   ...   ...   ...   ...   ...

Bridge Cont'd:
e|---------------------------------------------------------------------------|
B|----12-----12-----12-----12-----12-----12-----12-----12--------------------|
G|-----9------9------9------9------9------9------9------9--------------------|
D|---------------------------------------------------------------------------|
A|---------------------------------------------------------------------------|
E|0-0----0-0----0-0----0-0----0-0----0-0----0-0----0-0-----------------------|
  ...    ...    ...    ...    ...    ...    ...    ...

Bridge Cont'd:
e|---------------------------------------------------------------------------|
B|---------------------------------------------------------------------------|
G|5-5-5-5-5-5-5-5-5-5-5-5---------------7-7-7-7-7-7-7------------------------|
D|5-5-5-5-5-5-5-5-5-5-5-5-5-5-5-5-5-5-5-7-7-7-7-7-7-7------------------------|
A|3-3-3-3-3-3-3-3-3-3-3-3-5-5-5-5-5-5-5-5-5-5-5-5-5-5------------------------|
E|3-3-3-3-3-3-3-3-3-3-3-3-3-3-3-3-3-3-3-5-5-5-5-5-5-5------------------------|
  ...   ...   ...   ...   

Bridge Cont'd:
e|---------------------------------------------------------------------------|
B|---------------------------------------------------------------------------|
G|9~----5~----7~-------------------------------------------------------------|
D|9~----5~----7~----5-5-5-5-5-5-5-5-7-7-7-7-7-7--(Weird effect again)--------|
A|7~----3~----5~----3-3-3-3-3-3-3-3-5-5-5-5-5-5------------------------------|
E|7~----3~----5~----3-3-3-3-3-3-3-3-5-5-5-5-5-5------------------------------|
                    ...........................

Repeat Chorus

Outro:
e|---------------------------------------------------------------------------|
B|---------------------------------------------------------------------------|
G|7/9-9-9-9---------------------7/9-9-9-9------------------------------------|
D|7/9-9-9-9-8-8-8\7-7-7-7-2-2-2-7/9-9-9-9-8-8-8\7-7-7-7-2-2-2----------------|
A|5/7-7-7-7-8-8-8\7-7-7-7-2-2-2-5/7-7-7-7-8-8-8\7-7-7-7-2-2-2----------------|
E|----------6-6-6\5-5-5-5-0-0-0-----------6-6-6\5-5-5-5-0-0-0----------------|

Outro Cont'd:
e|---------------------------------------------------------------------------|
B|---------------------------------------------------------------------------|
G|7/9-9-9-9---------------------7/9-9-9-9------------------------------------|
D|7/9-9-9-9-8-8-8\7-7-7-7-2-2-2-7/9-9-9-9-8-8-8--8-7x-7-7-8-7x---------------|
A|5/7-7-7-7-8-8-8\7-7-7-7-2-2-2-5/7-7-7-7-8-8-8--8-7x-7-7-8-7x---------------|
E|----------6-6-6\5-5-5-5-0-0-0-----------6-6-6--6-5x-5-5-6-5x---------------|
                                                      ...

Hoobastank rocks the house.  Go to me and Greg's site full of tight ass tabs.
                    http://www.geocities.com/ggtabs07/
===============================================================================
Comments