Hoobastank - Out Of Control Chords & Tabs

 

Out Of Control Chords & Tabs

Hoobastank Chords & Tabs

Version: 7 Type: Tab 0 ratings
1 star 2 stars 3 stars 4 stars 5 stars
comments

Out Of Control Tab

HOOBASTANK

"OUT OF CONTROL"


INTRO/VERSE
------------------------------------------------
------------------------------------------------
------------------------------------------------
---12-12-12-12--11-11-11-11--9-9-9-9--7-7-7-7---
---10-10-10-10--9--9--9--9---7-7-7-7--7-7-7-7---
------------------------------------------------

PRE-CHORUS
-------------------------
-------------------------
-------------------------
---------------------3---
---0-0--23200--2320--3---
---0-0--23200--2320------
[ Tab from: http://www.guitartabs.cc/tabs/h/hoobastank/out_of_control_tab_ver_7.html ]
CHORUS
-------------------------------------------------------
-------------------------------------------------------
-------------------------------------------------------
-------99999--55--12-12-12-12-12------------44455577---
---22--77777--33--10-10-10-10-10--55555555--22233355---
---00-----------------------------33333333-------------


--------------------------------------------------
--------------------------------------------------
--------------------------------------------------
-------99999--55--12-12-12-12-12----44477711-11---
---22--77777--33--10-10-10-10-10----2225559--9----
---00---------------------------------------------

THIS VARIATION COMES IN AT 1:22 IN THE SONG
-------------------------------------------
-------------------------------------------
-------------------------------------------
------------55-555-5------------44444444---
---22-222-2-33-333-3--55-555-5--22222222---
---00-000-0-----------33-333-3-------------

THEN AT 1:46
-----------------------
-------55555/333\666---
----------------------- REPEAT
----------------------- 4X
---22------------------
---00------------------


MXBRANDON987
Comments