Hoobastank - Out Of Control Chords & Tabs

 

Out Of Control Chords & Tabs

Hoobastank Chords & Tabs

Version: 4 Type: Tab 0 ratings
1 star 2 stars 3 stars 4 stars 5 stars
comments

Out Of Control Tab

Hoobastank - Out Of Control

Tuning: Drop D 

Intro/Verse:
e|-------------------------------------------|
B|-------------------------------------------|
G|--12-12-12-12-11-11-11-11-9-9-9-9-9-9------|
D|---9--9--9--9--9--9--9--9-7-7-7-7-9-9-777--| x4
A|---7--7--7--7--7--7--7--7-7-7-7-7-7-7-777--|
D|---7--7--7--7--7--7--7--7-7-7-7-7-7-7-777--|

***The rest of the song is taken from a previous TAB.*** 

Pre-Chorus:
e|-------------------------------------------|
B|-------------------------------------------|
G|--------------5555-------------3333--------|
D|--2222554422225555-2222554422223333--------|
A|--2222554422223333-2222554422221111--------|
D|--222255442222-----222255442222------------|

Chorus:  
e|------0000----3333-------------------------|
B|------5555----3333-------------------------|
G|----------5555------------44445577---------|
D|--2222----5555----5555555544445577---------| x2
A|--2222----3333----5555555522223355---------|
D|--2222------------55555555-----------------|

Verse
[ Tab from: http://www.guitartabs.cc/tabs/h/hoobastank/out_of_control_tab_ver_4.html ]
0:57 ^octaves^
e|--333333332222222200000000~----------------|
B|-------------------------------------------|
G|-------------------------------------------|
D|-------------------------------------------|
A|-------------------------------------------|
D|-------------------------------------------|

Pre-Chorus

Chorus

1:22
e|-------------------------------------------|
B|-------------------------------------------|
G|--------------5~----------------------4~---|
D|--2~----------5~----------5~----------4~---|
A|--2~----------3~----------5~----------2~---|
D|--2~----------------------5~---------------|

Chorus

Bridge:
e|-------------------------------------------|
B|-------------------------------------------|
G|--------------5555-------------------------|
D|--22--554422225555--22--554422223333-------| x2
A|--22--554422223333--22--554422223333-------|
D|--22--55442222------22--554422223333-------|

e|------0000000---1111-----------------------|
B|-------------333---------------------------|
G|-------------------------------------------|
D|--2-2--------------------------------------| x4
A|--2-2--------------------------------------|
D|--2-2--------------------------------------|

Pre-Chorus

Chorus

Pre-Chorus (Outro)
Comments