Hoobastank - Out Of Control Chords & Tabs

 

Out Of Control Chords & Tabs

Hoobastank Chords & Tabs

Version: 2 Type: Tab 3 ratings
1 star 2 stars 3 stars 4 stars 5 stars
comments

Out Of Control Tab

Tabbed by The Reason :)
Dropped D tuning
*Intro/Verse*

E-------------------------------
B---8888---7777-----------------
G---9999---9999----9999---------
D------------------9999---------
A------------------------7777---
D------------------------7777--- ( times 3)

"Ive done everything as you say"
"I followed your rules with out question"
"I thought it would help me see things cleary"

E--------------------------------
B---8888---7777------------------
G---9999---9999----9999----------
D------------------9999----------
A------------------------77--55--
D------------------------77--55-- (times 1)

"But instead of helping me to see i look around and its like im blinded"

*Pre-Chorus*
E--------------------------------
B--------------------------------
G----------------555-------------
D--222454224542--555-------------
A--222454224542--333-------------
D--222454224542------------------ (times 1)

"Im spinning out of control out of control"

E--------------------------------
B--------------------------------
G--------------------------------
D--222454224542--333-------------
A--222454224542--333-------------
D--222454224542--333------------- (times 1)

"Im spinning out of control out of control"

*Chorus* ( / = slide)
E-----------------------------------------------------
B-----------------------------------------------------
G------/--999-----/--1212121212-------------44455577--
D---2--/-------10-/--1212121212---55555555--44455577--
A---2--/--777--10-/--1010101010---55555555--22233355--
D---2----------10-----------------55555555------------

"Where should i go? what should i do? I dont understand what you want from me"

E-------------------------------------------------------------
B-------------------------------------------------------------
G------/--999-----/--1212121212---44444444--7777--11-11-12-12-
D---2--/-------10-/--1212121212---44444444--7777--------------
A---2--/--777--10-/--1010101010---22222222--5555--9-9-9-10-10-
D---2----------10---------------------------------------------
[ Tab from: http://www.guitartabs.cc/tabs/h/hoobastank/out_of_control_tab_ver_2.html ]
"Cause I Dont know if I can trust you I dont understand what you want from me" 

*Bit B4 Second Verse
E------------------------------------
B---7777777788888888-----------------
G---9999999999999999-----------------
D------------------------------------
A------------------------------------
D------------------------------------ 

Same thing throughout Verse 2, just different strumming when vocals
are sung on "To let me know Im not alone ........"

*Part middle of Second Chorus*

E------------------------------------
B------------------------------------
G----------5-5----------44444444-----
D---2-2----5-5---5-5----44444444-----
A---2-2----3-3---5-5----22222222-----
D---2-2----------5-5----------------- 

"And I may never know the answer to this endless mystery"

*After Second Chorus
E--------------------------------
B--------------------------------
G----------------555-------------
D--22-454224542--555-------------
A--22-454224542--333-------------
D--22-454224542------------------ 


E--------------------------------
B--------------------------------
G--------------------------------
D--22-454224542--333-------------
A--22-454224542--333-------------
D--22-454224542--333------------- (times 2)

"Is it a mystery"

E--------------------------------
B---------55555-3333-666---------
G--------------------------------
D--22----------------------------
A--22----------------------------
D--22---------------------------- (times 3)

"Im spinning out of control out of control"

E--------------------------------
B---------55555------------------
G--------------------------------
D--22----------------------------
A--22----------------------------
D--22---------------------------- (times 1)

"Im spinning out of control outtt of controlllll!!!!"

Crazy spinning out of control part : use pre-chorus part
Chorus 3 : Use Chorus 2 with extra part in middle
End of Song: pre chorus part again

I love this song. Havnt seen dan play it yet but im pretty sure it is nearly 100% right.
Rock on hoobastank, cant wait to see you guys soon.
The reason. peace



Comments