Hoobastank - Out Of Control Chords & Tabs

 

Out Of Control Chords & Tabs

Hoobastank Chords & Tabs

Version: 1 Type: Bass Tab 0 ratings
1 star 2 stars 3 stars 4 stars 5 stars
comments

Out Of Control Bass Tab

   
Band- Hoobastank
Song- Out Of Control

Tuning 4-string: E A D G

Intro
G      |-------------------------|
D REST |-------------------------|
A      |-----------7-7-7---------|
E      |-00000000-0-0-0--050505--|

Pre Chorus
G -------------------------------------|
D -------------------------------------|
A --------------333--------------------|
E -0000232002320----0002320002320-111--|

Chorus
G -------------------------------------------|
D -------------------------------------------| listen for perfect timing
A ----77777-33-1010101010--------------------|
E -00---------------------3333-777888101010--|

G ---------------------------------------------|
D ---------------------------------------------|
A ----77777-33-1010101010----------5559991010--|
E -00---------------------77777777-------------|

Bridge I
G -------------------|
D -------------------|
A -------------------|
E -0000000000000000--|
[ Tab from: http://www.guitartabs.cc/tabs/h/hoobastank/out_of_control_btab.html ]
Verse
G ------------------------|
D ------------------------| listen for perfect timing
A ----------7-7-7---------| 2x
E -00-00-0-0-0-0--050505--|

G ----------------------------------|
D ----------------------------------| again listen for perfect timing
A ---------7-7-7-7-5-5-5-5----------| play pretty fast
E -000000-0-0-0-0-0-0-0-0-05050505--|

Pre Chorus
Chorus

Bridge II
G -------------|
D -------------|
A ----3-3---2--|
E -0-0---3-3---|

Breakdown I
G --------------------------------------------|
D --------------------------------------------|
A ---77777-33-1010101010--------121212121212--| not sure about the 12's
E -00--------------------777777---------------|

Breakdown II
G ---------------------------------------|
D ---------------------------------------|
A ---------------333---------------------| 4x
E -00--23200-2320----00--23200-2320-111--|
Stop at the 4th time when they all stop!!

Pre Chorus 2x
Chorus
Bridge II
Breakdown I
Pre Chorus (Outro)
Comments