Hoobastank - Never There Chords & Tabs

 

Never There Chords & Tabs

Hoobastank Chords & Tabs

Version: 1 Type: Bass Tab 0 ratings
1 star 2 stars 3 stars 4 stars 5 stars
comments

Never There Bass Tab

Never there by Hoobastank
Drop D tuning

(Intro)
-------------------------------------|
-------------------------------------|  x2
-------------------------------------|
-0-12p10-0-10h12-0-9h10-0-10p9-X-X-5-|

----------------------------------------------------------|
----------------------------------------------------------|
-----8-10------10-12--------------------------------------|
-8-8-----10-10--------0-12p10-0-10h12-0-9h10-0-10p9-X-X-5-|

------------------------------------|
------------------------------------|
------------------------------------|
-0-12-10h12~-0-12-10h12-8-7-10-12~\-|

-----------------------------------------------|
-----------------------------------------------|
-----------------------------------------------|
-0-12-10h12~-0-12-10h12-8-7-10-12~/15-15-15-15-|

-------------------------------------|
-------------------------------------|  x2
-------------------------------------|
-0-12p10-0-10h12-0-9h10-0-10p9-X-X-5-|

--------------------------------------------------------|
--------------------------------------------------------|
-----8-10------10-12------------------------------------|
-8-8-----10-10--------0-12p10-0-10h12-0-9h10-0-10p9-X-X-|

-------------------------------------|
-------------------------------------|  x2
-------------------------------------|
-0-12p10-0-10h12-0-9h10-0-10p9-X-X-5-|

---------------------------------------|
---------------------------------------|
------8-10------10-12-----6-8-----8-10-|
--8-8-----10-10-------6-6-----8-8------|

------------------------------------|
------------------------------------|
------------------------------------|
-0-12-10h12~-0-12-10h12-8-7-10-12~\-|

--------------------------------------------------------|
--------------------------------------------------------|
-----8-10------10-12------------------------------------|
-8-8-----10-10--------0-12p10-0-10h12-0-9h10-0-10p9-X-X-|

-------------------------------------|
-------------------------------------|  x2
-------------------------------------|
-0-12p10-0-10h12-0-9h10-0-10p9-X-X-5-|

--------------------------------------------------------|
--------------------------------------------------------|
-----8-10------10-12------------------------------------|
-8-8-----10-10--------0-12p10-0-10h12-0-9h10-0-10p9-X-X-|

-------------------------------------|
-------------------------------------|  x2
-------------------------------------|
-0-12p10-0-10h12-0-9h10-0-10p9-X-X-5-|
[ Tab from: http://www.guitartabs.cc/tabs/h/hoobastank/never_there_btab.html ]
---------------------------------------|
---------------------------------------|
------8-10------10-12-----6-8-----8-10-|
--8-8-----10-10-------6-6-----8-8------|

-----------------------------------------|
-----------------------------------------|
-----------------------------------------|
-0-10h12-0-13p12-0-10h12-0-13p12-0-10h12-|

(Bridge)
---------------------------------|
---------------------------------|
---------------------------------|
-0-8h10-0-8h10-0-7h9-0-7h9-0-7h9-|

--------------------------------------|
--------------------------------------|
--------------------------------------|
-0-10h12-0-10h12-0-9h11-0-9h11-0-9h11-|

---------------------------------|
---------------------------------|
---------------------------------|
-0-8h10-0-8h10-0-7h9-0-7h9-0-7h9-|

-----------------------------------------|
-----------------------------------------|
-----------------------------------------|
-0-10h12-0-13p12-0-10h12-0-13p12-0-10h12-|

---------------------------------|
---------------------------------|
---------------------------------|
-0-8h10-0-8h10-0-7h9-0-7h9-0-7h9-|

--------------------------------------|
--------------------------------------|
--------------------------------------|x1
-0-10h12-0-10h12-0-9h11-0-9h11-0-9h11-|

---------------------------------|
---------------------------------|
---------------------------------|x1
-0-8h10-0-8h10-0-7h9-0-7h9-0-7h9-|

-----------------------------------------|
-----------------------------------------|
-----------------------------------------|x3
-0-10h12-0-13p12-0-10h12-0-13p12-0-10h12-|

-------------------------------------|
-------------------------------------|  x2
-------------------------------------|
-0-12p10-0-10h12-0-9h10-0-10p9-X-X-5-|

--------------------------------------------------------|
--------------------------------------------------------|
-----8-10------10-12------------------------------------|
-8-8-----10-10--------0-12p10-0-10h12-0-9h10-0-10p9-X-X-|

-------------------------------------|
-------------------------------------|  x2
-------------------------------------|
-0-12p10-0-10h12-0-9h10-0-10p9-X-X-5-|

---------------------------------------|
---------------------------------------|  x2
------8-10------10-12-----6-8-----8-10-|
--8-8-----10-10-------6-6-----8-8------|

(Outro)
--------------------------|
--------------------------|  x4
--------------------------|
-0-12-0-10-0-13-0-12-0-10-|

Thanks, please rate it after you learn it.
_TheBassist01_
Comments