Hoobastank - Lucky Chords & Tabs

 

Lucky Chords & Tabs

Hoobastank Chords & Tabs

Version: 2 Type: Tab 0 ratings
1 star 2 stars 3 stars 4 stars 5 stars
comments

Lucky Tab

   
Song: Lucky
Artist: Hoobastank
Album: The Reason

Open C# Tuning (C# G# C# F G# C#)

Intro
C#[-0-0---0--0---0-0---0--0--]
G#[-0-0---0--0---0-0---0--0--]
 F[-8-8--13-12---8-8--11-10--]
C#[-7-7--12-12---7-7--10--9--]
G#[-5-0--10--0---5-0---8--7--]
C#[-5-0--10--0---5-0---8--7--]

Verse1
C#[-0-0---0--0---0-0---0--0--]
G#[-0-0---0--0---0-0---0--0--]
 F[-8-8--13-12---8-8--11-10--]
C#[-7-7--12-12---7-7--10--9--]
G#[-5-0--10--0---5-0---8--7--]
C#[-5-0--10--0---5-0---8--7--]

Drums start here
C#[-0-0---0--0---0-0---0---0--0---0--]
G#[-0-0---0--0---0-0---0---0--0---0--]
 F[-8-8--13-12---8-8--11--13--7--10--]
C#[-7-7--12-12---7-7--10--12--7--10--]
G#[-5-0--10--0---5-0---8--10--7--10--]
C#[-5-0--10--0---5-0---8--10--7--10--]

Chorus1
C#[-0---0---0--0--]
G#[-0---0---0--0--]
 F[-8--13--11--6--]
C#[-7--12--10--5--]
G#[-0--10---8--3--]
C#[-0--10---8--3--]

C#[-0---0------0--0--0--]
G#[-0---0------0--0--0--]
 F[-8--13--4--11--6--8--]
C#[-7--12--1--10--5--7--]
G#[-0--10--1---8--3--0--]
C#[-0--10--1---8--3--0--]

Verse2
C#[-0-0---0--0---0-0---0--0--]
G#[-0-0---0--0---0-0---0--0--]
 F[-8-8--13-12---8-8--11-10--]
C#[-7-7--12-12---7-7--10--9--]
G#[-5-0--10--0---5-0---8--7--]
C#[-5-0--10--0---5-0---8--7--]

C#[-0-0---0--0---0-0---0---0--0---0--]
G#[-0-0---0--0---0-0---0---0--0---0--]
 F[-8-8--13-12---8-8--11--13--7--10--]
C#[-7-7--12-12---7-7--10--12--7--10--]
G#[-5-0--10--0---5-0---8--10--7--10--]
C#[-5-0--10--0---5-0---8--10--7--10--]

Chorus2
C#[-0---0---0--0--]
G#[-0---0---0--0--]
 F[-8--13--11--6--]
C#[-7--12--10--5--]
G#[-0--10---8--3--]
C#[-0--10---8--3--]

C#[-0---0------0--0---------]
G#[-0---0------0--0---------]
 F[-8--13--4--11--6-----13--]
C#[-7--12--1--10--5--7--12--]
G#[-0--10--1---8--3--7--10--]
C#[-0--10--1---8--3--7--10--]

Bridge
C#[------------------------]
G#[------------------------]
 F[-8----------------------]
C#[-0-xxx-5h7777h10-10-10--]
G#[-0-xxx-5h7777h10-10-10--]
C#[-0-xxx-5h7777h10-10-10--]
[ Tab from: http://www.guitartabs.cc/tabs/h/hoobastank/lucky_tab_ver_2.html ]
C#[---------------------]
G#[---------------------]
 F[---------------------]
C#[-0-xxx-4h5555h7-7-7--]
G#[-0-xxx-4h5555h7-7-7--]
C#[-0-xxx-4h5555h7-7-7--]

C#[-------------------------------]
G#[-------------------------------]
 F[-------7777-------13-13-13-13--]
C#[-8888--7777--8888h12-12-12-12--]
G#[-8888--7777--8888h10-10-10-10--]
C#[-8888--7777--8888h10-10-10-10--]

C#[------------------------]
G#[------------------------]
 F[-8----------------------]
C#[-0-xxx-5h7777h10-10-10--]
G#[-0-xxx-5h7777h10-10-10--]
C#[-0-xxx-5h7777h10-10-10--]

C#[---------------------]
G#[---------------------]
 F[---------------------]
C#[-0-xxx-4h5555h7-7-7--]
G#[-0-xxx-4h5555h7-7-7--]
C#[-0-xxx-4h5555h7-7-7--]

C#[-------------------------------]
G#[-------------------------------]
 F[-------7777-------13-13-13-13--]
C#[-8888--7777--8888h12-12-12-12--]
G#[-8888--7777--8888h10-10-10-10--]
C#[-8888--7777--8888h10-10-10-10--]

Instrumental
C#[---xxxx---xxxx---xxxx-------------------]
G#[---xxxx---xxxx---xxxx-------------------]
 F[-8-xxxx-8-xxxx-8-xxxx-------------------]
C#[-7-xxxx-7-xxxx-7-xxxx--5h7777h10-10-10--]
G#[---xxxx---xxxx---xxxx--5h7777h10-10-10--]
C#[---xxxx---xxxx---xxxx--5h7777h10-10-10--]

C#[---xxxx---xxxx---xxxx-------------------]
G#[---xxxx---xxxx---xxxx-------------]
 F[-8-xxxx-8-xxxx-8-xxxx-------------]
C#[-7-xxxx-7-xxxx-7-xxxx--55555-333--]
G#[---xxxx---xxxx---xxxx--55555-333--]
C#[---xxxx---xxxx---xxxx--55555-333--]

Chorus3
C#[--0----------------]
G#[--0----------------]
 F[--0-sustain chord--]
C#[--0----------------]
G#[--0----------------]
C#[--0----------------]

C#[-0---0------0--0--]
G#[-0---0------0--0--]
 F[-8--13--4--11--6--]
C#[-7--12--1--10--5--]
G#[-0--10--1---8--3--]
C#[-0--10--1---8--3--]

Tag/Ending
C#[-0---0---0--0--]
G#[-0---0---0--0--]
 F[-8--13--11--6--]
C#[-7--12--10--5--]
G#[-0--10---8--3--]
C#[-0--10---8--3--]

C#[-0---0------0--0--0--]
G#[-0---0------0--0--0--]
 F[-8--13--4--11--6--8--]
C#[-7--12--1--10--5--7--]
G#[-0--10--1---8--3--0--]
C#[-0--10--1---8--3--0--]

Tabbed By Robby Valderrama
www.celede.net/bio_r.html
Comments