Hoobastank - Lucky Chords & Tabs

 

Lucky Chords & Tabs

Hoobastank Chords & Tabs

Version: 1 Type: Bass Tab 0 ratings
1 star 2 stars 3 stars 4 stars 5 stars
comments

Lucky Bass Tab

   
----------------------------------------------------------------------------
			     Lucky - Hoobashtank
----------------------------------------------------------------------------

Tabbed By :
e-mail:

Tuning:
Guitar intro

Bass Starts at,0:20
Verse 1
G|---------------------------------------|------------------------------------|
D|---------------------------------------|------------------------------------|
A|---------------------------------------|------------------------------------|
E|-5555-5555--33--55-7-5--5-6-7-8-7-5-7--|5555555-----------------------------|
Chorus X2
G|-------------------------------------------------------------------------|
D|-------------------------------------------------------------------------|
A|-----6-----6------6-------7----7----7-------3-----3----3-----------------|
E|--555---555---555---55/777--777--777--77\333--333---333--5-7-5-4-6-8-7---|
[ Tab from: http://www.guitartabs.cc/tabs/h/hoobastank/lucky_btab.html ]
Verse 2 is Verse 1 repeated twice.
1st Bridge                           2nd part of bridge
G|------------------------------|--------------------------------------------|
D|------------------------------|--------------------------------------------|
A|------------------------------|--------------------------------------------|
E|-5555555-7-xxx-5-5-7-xxx-5-5--|-777777-99999-555555-33-55-7-xxx-7-5-7xxx7--|
5-7-777777-555555-999999--TEN-TEN-88-----------------------------------------|
3rd part of bridge
G|----------------------------------------------------------------------|
D|----------------------------------------------------------------------|
A|----------------------------------------------------------------------|
E|--7xxx7xxx7xxx7xxx575-7xxx7xxx7xxx7575-0~-----------------------------|

Chorus

2nd part of bridge

If you can do better do it! don't say I suck.


| /  slide up
| \  slide down
| h  hammer-on
| p  pull-off
| ~  vibrato
| +  harmonic
| x  Mute note
============================================================================
Comments