Hoobastank - Losing My Grip Chords & Tabs

 

Losing My Grip Chords & Tabs

Hoobastank Chords & Tabs

Version: 2 Type: Tab 0 ratings
1 star 2 stars 3 stars 4 stars 5 stars
comments

Losing My Grip Tab

Tabbed by: Pete Searle
Artist: Hoobastank
Title: Losing my grip
Tuning: EBEG#BE

Intro 1: Swelled(w/delay,phaser)

|----------------|
|----------------|
|-11---10--11-10-|
|-10---10--10-10-|  1x
|-8----8---8--8--|
|-0----0---0--0--|

Intro 2:(w/slight dist)
swelled(w/delay,phaser)

|---------------------------------------------------------------------|
|---------------------------------------------------------------------|
|-11---11-11-10----11---11-11-10----11---11-11-10----11---11-11-11-10-|
|-10---10-10-10----10---10-10-10----10---10-10-10----10---10-10-10-10-|  1x
|-8----8--8--8-----8----8--8--8-----8----8--8--8-----8----8--8--8--8--|
|-0----0--0--0-----0----0--0--0-----8----8--8--8-----8----8--8--8--8--|

|-----------------------------------------------------------------------|
|-----------------------------------------------------------------------|
|-11---11-11-10----11---11-11-10----11---11-11-10----11---11-11-10---10-|
|-10---10-10-10----10---10-10-10----10---10-10-10----10---10-10-10---10-|  1x
|-8----8--8--8-----8----8--8--8-----8----8--8--8-----8----8--8--8----8--|
|-0----0--0--0-----0----0--0--0-----8----8--8--8-----8----8--8--8----8--|

|----------------------------|      
|----------------------------|     
|-13--13--13-13-13--7~~~~~~~-|      
|-12--12--12-12-12--6~~~~~~~-|  1x  
|-10--10--10-10-10--4~~~~~~~-| ~Let ring     
|-10--10--10-10-10--4~~~~~~~-|      

Intro 3:(w/distortion)

|---------------------------------|
|---------------------------------|
|---------------------------------|
|---7-8---7-----------------------|  4x
|-5-----5---8-0-7-8-0-7-8-0-8-7-5-|
|---------------------------------|

Verse 1:(w/distortion)                   End verse 1
P.M Throughout                           P.M as indicated
|---------------------------------|      |---------------------------------|
|---------------------------------|      |---------------------------------|
|---------------------------------|      |---------------------------------|
|---7-8---7-----------------------|  3x  |---7-8---7-----------------------|  1x
|-5-----5---8-0-7-8-0-7-8-0-8-7-5-|      |-5-----5---8-0-7-8-0-7-8-0-8-7-0-|
|---------------------------------|      |---------------------------------|
                                          P.M. . . . . . . . . .
Pre chorus:(w/distortion)
|----------------------------------------------------------------|
|----------------------------------------------------------------|
|-6---6--6-6-6-6-6-7---7--7-7-7777-----------------5--5-5--------|
|-5---5--5-5-5-5-5-6---6--6-6-6666-8---8--8-8-8888-4--4-4-6--6-6-|  1x
|-3---3--3-3-3-3-3-4---4--4-4-4444-6---6--6-6-6666-2--2-2-4--4-4-|
|-5---5--5-5-5-5-5-4---4--4-4-4444-6---6--6-6-6666-4--4-4-4--4-4-|

Chorus 1:(w/distortion)
|------------------------------------------------------------------|
|------------------------------------------------------------------|
|------------------------------------------------------------------|
|-8---8--8-8-8-8-8-4---4--4-4-4-4-4-6---6--6-6-6-6-6-4--4-4-8--8-8-|  1x
|-6---6--6-6-6-6-6-2---2--2-2-2-2-2-4---4--4-4-4-4-4-2--2-2-4--4-4-|
|-6---6--6-6-6-6-6-2---2--2-2-2-2-2-6---6--6-6-6-6-6-2--2-2-4--4-4-|

End chorus 1:(w/distortion)
|-------------------------------------------------------------------|
|-------------------------------------------------------------------|
|-------------------------------------------------------------------|
|-8---8--8-8-8-8-8-4---4--4-4-4-4-4-6---6--6-6-6-6-6-4--4-4-8~~~~~~-|  1x
|-6---6--6-6-6-6-6-2---2--2-2-2-2-2-4---4--4-4-4-4-4-2--2-2-4~~~~~~-| ~Let ring
|-6---6--6-6-6-6-6-2---2--2-2-2-2-2-6---6--6-6-6-6-6-2--2-2-4~~~~~~-|


[ Tab from: http://www.guitartabs.cc/tabs/h/hoobastank/losing_my_grip_tab_ver_2.html ]
Verse 2:(w/distortion)                   End verse 1
P.M Throughout                           P.M as indicated
|---------------------------------|      |---------------------------------|
|---------------------------------|      |---------------------------------|
|---------------------------------|      |---------------------------------|
|---7-8---7-----------------------|  7x  |---7-8---7-----------------------|  1x
|-5-----5---8-0-7-8-0-7-8-0-8-7-5-|      |-5-----5---8-0-7-8-0-7-8-0-8-7-0-|
|---------------------------------|      |---------------------------------|
                                          P.M. . . . . . . 
Pre chorus:(w/distortion)
|----------------------------------------------------------------|
|----------------------------------------------------------------|
|-6---6--6-6-6-6-6-7---7--7-7-7777-----------------5--5-5--------|
|-5---5--5-5-5-5-5-6---6--6-6-6666-8---8--8-8-8888-4--4-4-6--6-6-|  1x
|-3---3--3-3-3-3-3-4---4--4-4-4444-6---6--6-6-6666-2--2-2-4--4-4-|
|-5---5--5-5-5-5-5-4---4--4-4-4444-6---6--6-6-6666-4--4-4-4--4-4-|

Chorus 1:(w/distortion)
|------------------------------------------------------------------|
|------------------------------------------------------------------|
|------------------------------------------------------------------|
|-8---8--8-8-8-8-8-4---4--4-4-4-4-4-6---6--6-6-6-6-6-4--4-4-8--8-8-|  1x
|-6---6--6-6-6-6-6-2---2--2-2-2-2-2-4---4--4-4-4-4-4-2--2-2-4--4-4-|
|-6---6--6-6-6-6-6-2---2--2-2-2-2-2-6---6--6-6-6-6-6-2--2-2-4--4-4-|

End chorus 1:(w/distortion)
|-------------------------------------------------------------------|
|-------------------------------------------------------------------|
|-------------------------------------------------------------------|
|-8---8--8-8-8-8-8-4---4--4-4-4-4-4-6---6--6-6-6-6-6-4--4-4-8~~~~~~-|  1x
|-6---6--6-6-6-6-6-2---2--2-2-2-2-2-4---4--4-4-4-4-4-2--2-2-4~~~~~~-| ~Let ring
|-6---6--6-6-6-6-6-2---2--2-2-2-2-2-6---6--6-6-6-6-6-2--2-2-4~~~~~~-|

Bridge 1:(w/distortion)
P.M Throughout
|---------------------------------------------------------------|
|---------------------------------------------------------------|
|---------------------------------------------------------------|
|---4-5---4-5---5-4---4-5---4---4-5---5-4---4-5---4-5---4-5-4---|  1x
|-5-----5-----5-----5-----5---5-----5-----5-----5-----5-------7-|
|---------------------------------------------------------------|

Bridge 2:(w/distortion)
P.M Throughout
|-----------------------------------------------------------------|
|-----------------------------------------------------------------|
|-----------------------------------------------------------------|
|---4-5---4-5---4-5---4-5---4-------------------------------------|  1x
|-5-----5-----5-----5-----5---5-7-8-5-7-8-5-7-8-5-7-8-5-7-8-5-7-8-|
|-----------------------------------------------------------------|

Bridge 3:(w/distortion)
P.M as indicated 
|---------------------------------------------------------|
|---------------------------------------------------------|
|---------------------------------------------------------|
|---4-5---4-5---5-4---4-5---4---4-5---5-4---4-5---4-5---4-|  1x
|-5-----5-----5-----5-----5---5-----5-----5-----5-----5---|
|---------------------------------------------------------|
 P.M. . . . . . . . . . . . . . . . . . .

Fill:(w/distortion)
|----------------------------|
|-------------------------7*-| 
|----------------------------|
|----------------------------|  1x 
|-3--3--3-333333-5-5-5-55----| * harmonic
|-3--3--3-333333-5-5-5-55----|

Chorus 2:(w/distortion)
|---------------------------------------------------------------|
|---------------------------------------------------------------|
|---------------------------------------------------------------|
|-9---9--9-9-9-9-9-5---5--5-5-5-5-5------------------5--5-5-7-7-|  2x
|-7---7--7-7-7-7-7-3---3--3-3-3-3-3-0---0--0-0-0-0-0-3--3-3-5-5-|
|-7---7--7-7-7-7-7-3---3--3-3-3-3-3-0---0--0-0-0-0-0-3--3-3-5-5-|







Solo:(w/distortion)
Tremelo picking as indicated
|-------------------------------------------------------------------------|
|-------------------------------------------------------------------------|
|----------------------10------888-101010-11------12------13------15\\\\\-|
|----------------------x-------xxx-x-x-x--x-------x-------x-------x\\\\\\-|  1x
|----------------------7-------555-7-7-7--8-------9-------10------12\\\\\-| " Tremelo picking
|-\\\\\Pick slide\\\\\-"------------------"-------"--------"--------------| \\ Slide

End chorus 2:(w/distortion)
|-------------------------------------------------------------------|
|-------------------------------------------------------------------|
|-------------------------------------------------------------------|
|-9---9--9-9-9-9-9-5---5--5-5-5-5-5------------------5--5-5-7~~~~~~-|  1x
|-7---7--7-7-7-7-7-3---3--3-3-3-3-3-0---0--0-0-0-0-0-3--3-3-5~~~~~~-| ~ Let ring
|-7---7--7-7-7-7-7-3---3--3-3-3-3-3-0---0--0-0-0-0-0-3--3-3-5~~~~~~-|

Please rate this tab it has taken me bloody ages and it is much much better
Than the other tabs of losing my grip on this website you will soon know that once you 
Try this tab out, have fun!
Comments