Hoobastank - Let You Know Chords & Tabs

 

Let You Know Chords & Tabs

Hoobastank Chords & Tabs

Version: 1 Type: Bass Tab 0 ratings
1 star 2 stars 3 stars 4 stars 5 stars
comments

Let You Know Bass Tab

   
Band- Hoobastank
Song- Let You Know

Standard Tuning: E A D G

Listen to the song for rhythm etc.

Intro:        0:05
G|------------------------------------|
D|------------------------------------|
A|------------------------------------|
E|-------------7-7--------------------|
[ Tab from: http://www.guitartabs.cc/tabs/h/hoobastank/let_you_know_btab.html ]
Chorus:
G|------------------------------------|
D|------------------------------------|
A|------------------------------------|
E|--777777-555555-444444-333333-------|

Bridge:
G|------------------------------------|-----------|
D|------------------------------------|--------4--|
A|--2~-----2-4----------2-4~----------|-----4-----|
E|-------------5~-----5----------9\2--|--2--------|

Chorus

End
Comments