Hoobastank - Just One Chords & Tabs

 

Just One Chords & Tabs

Hoobastank Chords & Tabs

Version: 1 Type: Tab 0 ratings
1 star 2 stars 3 stars 4 stars 5 stars
comments

Just One Tab

HOOBASTANK

"JUST ONE"


1ST PART OF INTRO/VERSE
-------------------------------------
-------------------------------------
-------------------------------------
-------1-2------1-2---------4--1-1---
---4-2------2-2------2-2--4----------
-------------------------------------

2ND PART OF INTRO
-----------------------------------------
-----------------------------------------
-----------------------------------------
---6-6-666---------------------4-4-444---
---4-4-444--7-7-7777--2-2-222--2-2-222---
------------5-5-5555--0-0-000------------

---------------------------------------------
---------------------------------------------
---------------------------------------------
---6-6-666---------------------------44444---
---4-4-444--7-7-7777--4-4-444--2-22--22222---
------------5-5-5555--2-2-222--0-00----------

CHORUS
-----------------------------------------
-----------------------------------------
-----------------------------------------
---6-6-666---------------------4-4-444---
---4-4-444--7-7-7777--2-2-222--2-2-222---
------------5-5-5555--0-0-000------------

---------------------------------------------
---------------------------------------------
---------------------------------------------
---6-6-666---------------------------44444---
---4-4-444--7-7-7777--4-4-444--2-22--22222---
------------5-5-5555--2-2-222--0-00----------
[ Tab from: http://www.guitartabs.cc/tabs/h/hoobastank/just_one_tab.html ]
--------------------------------------------------------------
--------------------------------------------------------------
-------------------------------------------------2-22---------
---6-6-666---------------------4-4-444--7-7-777--0-00---------
---4-4-444--7-7-7777--2-2-222--2-2-222--5-5-555--------2222---
------------5-5-5555--0-0-000--------------------------0000---

THEN AT 1:56
-------------------------
-------------------------
-------------------------
-------------------------
---44444444--555--7777---
---22222222--333--5555---

--------------------------------
--------------------------------
--------------------------------
--------------------------------
050--55050--55050--5505505/66---
030--33030--33030--3303303/44---

-------------------------------------------------------------------------------
-------------------------------------------------------------------------------
-------------------------------------------------------------------------------
-------------------------------------------------------------------------------
---77777777--66666666--99999999--11-11-11-11-11-11-11-11--77777777--66666666---
---55555555--44444444--77777777--9--9--9--9--9--9--9--9---55555555--44444444---

--------------------
--------------------
--------------------
--------------------
---050--5505505/6---
---030--3303303/4---

END WITH THIS
---------------------------
---------------------------
---------------------------
---------------------------
---050-55050-55050-55050---
---030-33030-33030-33030---



MXBRANDON987
Comments