Hoobastank - Just One Chords & Tabs

 

Just One Chords & Tabs

Hoobastank Chords & Tabs

Version: 1 Type: Bass Tab 0 ratings
1 star 2 stars 3 stars 4 stars 5 stars
comments

Just One Bass Tab

   
Just one by Hoobastank
Tuning- D,A,D,G

(Intro)
G:------------------|
D:-----2-2----------|  x2
A:4-4-------0-0--2-2|
D:------------------|

G:----------------------------------|
D:---------2-2-2-2------------------|
A:4-4-4-4-----------0-0-0-0--2-2-2-2|
D:----------------------------------|

G:--------------------------------4-|
D:---------2-2-2-2--4-4-4-4--2-2----|
A:4-4-4-4---------------------------|
D:----------------------------------|

G:------------------|
D:-----2-2----------|  x4
A:4-4-------0-0--2-2|
D:------------------|

G:----------------------------------|
D:---------2-2-2-2------------------|
A:4-4-4-4-----------0-0-0-0--2-2-2-2|
D:----------------------------------|

G:--------------------------------4-|
D:---------2-2-2-2--4-4-4-4--2-2----|
A:4-4-4-4---------------------------|
D:----------------------------------|

G:----------------------------------|
D:---------2-2-2-2------------------|
A:4-4-4-4-----------0-0-0-0--2-2-2-2|
D:----------------------------------|

G:-----------------|
D:0-0-0-0----------|
A:---------0-0-----|
D:--------------2-4|

G:------------------|
D:-----2-2----------|  x4
A:4-4-------0-0--2-2|
D:------------------|

(Chorus)
G:----------------------------------|
D:---------2-2-2-2------------------|
A:4-4-4-4-----------0-0-0-0--2-2-2-2|
D:----------------------------------|

G:--------------------------------4-|
D:---------2-2-2-2--4-4-4-4--2-2----|
A:4-4-4-4---------------------------|
D:----------------------------------|

G:----------------------------------|
D:---------2-2-2-2------------------|
A:4-4-4-4-----------0-0-0-0--2-2-2-2|
D:----------------------------------|

G:-----------------|
D:0-0-0-0----------|
A:---------0-0-----|
D:--------------2-4|
[ Tab from: http://www.guitartabs.cc/tabs/h/hoobastank/just_one_btab.html ]
(Bridge)
G:----------------------------------------|
D:-------------------------------2---2-4-4|  x2
A:-----------------------------4---4------|
D:0-2-0--2-0-2-0--2-0-2-0--2-0------------|

G:----------------------------------|
D:----------------------------------|
A:0-0-0-0-----------2-2-2-2--4-4-4-4|
D:---------2-2-2-2------------------|

G:----------------------------------------|
D:-------------------------------2---2-4-4|
A:0-0-0-0----------------------4---4------|
D:---------2-2-2-2--0-2-0--2-0------------|

G:----------------------------------|
D:----------------------------------|
A:0-0-0-0-----------2-2-2-2--4-4-4-4|
D:---------2-2-2-2------------------|

G:----------------|
D:----------------|
A:0-0-0-0--2-2-2-2|
D:----------------|

G:----------------------------------|
D:---------2-2-2-2------------------|
A:4-4-4-4-----------0-0-0-0--2-2-2-2|
D:----------------------------------|

G:--------------------------------4-|
D:---------2-2-2-2--4-4-4-4--2-2----|
A:4-4-4-4---------------------------|
D:----------------------------------|

G:----------------------------------|
D:---------2-2-2-2------------------|
A:4-4-4-4-----------0-0-0-0--2-2-2-2|
D:----------------------------------|

G:-----------------|
D:0-0-0-0----------|
A:---------0-0-----|
D:--------------2-4|

G:----------------------------------|
D:---------2-2-2-2------------------|
A:4-4-4-4-----------0-0-0-0--2-2-2-2|
D:----------------------------------|

G:--------------------------------4-|
D:---------2-2-2-2--4-4-4-4--2-2----|
A:4-4-4-4---------------------------|
D:----------------------------------|

G:----------------------------------|
D:---------2-2-2-2------------------|
A:4-4-4-4-----------0-0-0-0--2-2-2-2|
D:----------------------------------|

G:-----------------|
D:0-0-0-0----------|
A:---------0-0-----|
D:--------------2-4|

(Outro)
G:--------------------------------|
D:--------------------------------|
A:--------------------------------|
D:0-2-0--0-2-0-2--0-2-0-2--0-2-0-2|

Thanks, please rate it after you learn it. 
Tabbed by:
_TheBassist01_
Comments