Hoobastank - If Only Chords & Tabs

 

If Only Chords & Tabs

Hoobastank Chords & Tabs

Version: 2 Type: Tab

If Only Tab

   
-------------------------------------------------------------------------------
			     If Only Intro- Hoobastank
-------------------------------------------------------------------------------
Tabbed by:Adam Lane
Email:starlane79@gmail.com

Tuning:Standard

e|---11-11-11-12-12-12------------------14-14-14----12--12--12---11 11 11--|
B|----------------------------12--12--12-----------------------------------|
G|-------------------------------------------------------------------------|
D|-------------------------------------------------------------------------|
A|-------------------------------------------------------------------------|
E|-------------------------------------------------------------------------|
[ Tab from: http://www.guitartabs.cc/tabs/h/hoobastank/if_only_tab_ver_2.html ]
e|---------------------12--12--12--------------------14-14-14----12--12-12—11 11--|
B|----10--10--10------------------12--12-12---------------------------------------|
G|--------------------------------------------------------------------------------|
D|--------------------------------------------------------------------------------|
A|--------------------------------------------------------------------------------|
E|--------------------------------------------------------------------------------|


e|---11-11-11--12--12-12-----------------14 14 14 12--12--12—11 11-11--|
B|------------------------------12--12--12-----------------------------|
G|---------------------------------------------------------------------|
D|---------------------------------------------------------------------|
A|---------------------------------------------------------------------|
E|---------------------------------------------------------------------|
Repeat Line 2 and change the last 11 to a 11\ and that’s it.

| /  slide up
| \  slide down
| h  hammer-on
| p  pull-off
| ~  vibrato
| +  harmonic
| x  Mute note
===============================================================================