Hoobastank - If Only Chords & Tabs

 

If Only Chords & Tabs

Hoobastank Chords & Tabs

Version: 1 Type: Tab

If Only Tab

Tabbed by Cure4theitch

If only
Hoobastank
Every man for himself
[ Tab from: http://www.guitartabs.cc/tabs/h/hoobastank/if_only_tab.html ]
Hey this is a great a song from their new album. This is actually my first tab so please send
any comments cure4theitch@telkomsa.net. I think some delay and chorus is used with a clean sound.
Simple but effective. This is also played over the chorus. The song is in key of E.
         
E||--11--11--11----------14--14--14----12--12--12--11--11--------------|
B||--------------12--12------------------------------------10--10--10--|
G||--------------------------------------------------------------------|
D||--------------------------------------------------------------------|
A||--------------------------------------------------------------------|
E||--------------------------------------------------------------------|


             
E||--12--12--12----------14--14--14----12--12--11--11\-----------|
B||--------------12--12------------------------------------------|
G||--------------------------------------------------------------|
D||--------------------------------------------------------------|
A||--------------------------------------------------------------|
E||--------------------------------------------------------------|