Hoobastank - Hoobastank Chords & Tabs

 

Hoobastank Chords & Tabs

Hoobastank Chords & Tabs

Version: 1 Type: Tab 0 ratings
1 star 2 stars 3 stars 4 stars 5 stars
comments

Hoobastank Tab

   
Band- Hoobastank
Album- Hoobastank

I'm not much of a Hoobastank fan,but I got to admit,this album was pretty
good.I'm also going to tab The Reason album too.

1.Crawling In The Dark
2.Remember Me
3.Running Away
4.Pieces
5.Let You Know
6.Better
7.Ready For You
8.Up And Gone
9.Too Little Too Late
10.Hello Again
11.To Be With You
12.Give It Back

1.CRAWLING IN THE DARK

e--|---------------------------------|
B--|-------2---3---2-----------------|
G#-|-------------------1---0---------|
E--|---------------------------------|  x3
B--|-0h2-2---2---2---2---2-----0---0-|
E--|-0h2-2---2---2---2---2-----0---0-|

e--|-0---0-0-0-0---0---0-0-0---0-0---|
B--|-0---0-0-0-0---0---0-0-0---0-0---|
G#-|-6---6-6-6-5---8---8-8-8---8-8---|
E--|-5---5-5-5-4---7---7-7-7---7-7---|
B--|-3---3-3-3-2---0---0-0-5---5-5---|
E--|-0---0-0-0-0---0---0-0-0---0-0---|



Verse

e--|---------0---0-0---0-0---0-0---0---------0---0-0---0-0---0-0---0-|
B--|---------5---5-5---5-5---5-5---5---------5---5-5---5-5---5-5---5-|
G#-|---------5---5-5---5-5---5-5---5---------5---5-5---5-5---5-5---5-|
E--|---------4---4-4---4-4---4-4---4---------4---4-4---4-4---4-4---4-|
B--|-0h2-----2---2-2---2-2---2-0---0-0h2-----2---2-2---2-2---2-0---0-|
E--|-0h2-----2---2-2---2-2---2-0---0-0h2-----2---2-2---2-2---2-0---0-|

         I will deticate,                 and sacrifice my every...

e--|-0---0-0-0---0-0-0-0-0-0---0-0---0---0-0-0---0-0-0-0-0-0---0-0---|
B--|-0---0-0-0---0-0-0-0-0-0---0-0---0---0-0-0---0-0-0-0-0-0---0-0---|
G#-|-6---6-6-6---6-6-6-6-6-8---8-8---6---6-6-6---6-6-6-6-6-8---8-8---|
E--|-5---5-5-5---5-5-5-5-5-7---7-7---5---5-5-5---5-5-5-5-5-7---7-7---|
B--|-3---3-3-3---3-3-3-3-3-0---0-0---3---3-3-3---3-3-3-3-3-0---0-0---|
E--|-----------------------0---0-0-------------------------0---0-0---|

         Thing for...                  of how my story...

e--|---------0---0-0---0-0---0-0---0---------0---0-0---0-0---0-0---0-|
B--|---------5---5-5---5-5---5-5---5---------5---5-5---5-5---5-5---5-|
G#-|---------5---5-5---5-5---5-5---5---------5---5-5---5-5---5-5---5-|
E--|---------4---4-4---4-4---4-4---4---------4---4-4---4-4---4-4---4-|
B--|-0h2-----2---2-2---2-2---2-0---0-0h2-----2---2-2---2-2---2-0---0-|
E--|-0h2-----2---2-2---2-2---2-0---0-0h2-----2---2-2---2-2---2-0---0-|

         I wish I could know,             if the directions...

e--|-0---0-0-0---0-0-0-0-0-0---0-0---0---0-0-0---0-0-0-0-0-0---0-0---|
B--|-0---0-0-0---0-0-0-0-0-0---0-0---0---0-0-0---0-0-0-0-0-0---0-0---|
G#-|-6---6-6-6---6-6-6-6-6-8---8-8---6---6-6-6---6-6-6-6-6-8---8-8---|
E--|-5---5-5-5---5-5-5-5-5-7---7-7---5---5-5-5---5-5-5-5-5-7---7-7---|
B--|-3---3-3-3---3-3-3-3-3-0---0-0---3---3-3-3---3-3-3-3-3-0---0-0---|
E--|-----------------------0---0-0-------------------------0---0-0---|

         and all the choices...          won't end up...



Chorus

e--|---------0---0-0---0-0-0---0-0-0---------0---0-0---0-0-0---0-0-0-|
B--|---------5---5-5---5-5-0---0-0-0---------5---5-5---5-5-0---0-0-0-|
G#-|---------5---5-5---5-5-8---8-8-8---------5---5-5---5-5-8---8-8-8-|
E--|---------4---4-4---4-4-7---7-7-7---------4---4-4---5-5-7---7-7-7-|
B--|-0h2-----2---2-2---2-2-5---5-5-0-0h2-----2---2-2---2-2-5---5-5-0-|
E--|-0h2-----2---2-2---2-2-5---5-5-0-0h2-----2---2-2---2-2-5---5-5-0-|

           Show me what it's for...        Make me..

e--|-0---0-0-0---0-0-0-0-0-0---0-0---0---0-0-0---0-0-0-0-0-0---0-0---|
B--|-0---0-0-0---0-0-0-0-0-0---0-0---0---0-0-0---0-0-0-0-0-0---0-0---|
G#-|-6---6-6-6---6-6-6-6-6-8---8-8---6---6-6-6---6-6-6-6-6-8---8-8---|
E--|-5---5-5-5---5-5-5-5-5-7---7-7---5---5-5-5---5-5-5-5-5-7---7-7---|
B--|-3---3-3-3---3-3-3-3-3-0---0-0---3---3-3-3---3-3-3-3-3-0---0-0---|
E--|-----------------------0---0-0-------------------------0---0-0---|

         'Cause I've been...             Looking for...

e--|---------0---0-0---0-0-0---0-0-0---------0---0-0---0-0-0---0-0-0-|
B--|---------5---5-5---5-5-0---0-0-0---------5---5-5---5-5-0---0-0-0-|
G#-|---------5---5-5---5-5-8---8-8-8---------5---5-5---5-5-8---8-8-8-|
E--|---------4---4-4---4-4-7---7-7-7---------4---4-4---5-5-7---7-7-7-|
B--|-0h2-----2---2-2---2-2-5---5-5-0-0h2-----2---2-2---2-2-5---5-5-0-|
E--|-0h2-----2---2-2---2-2-5---5-5-0-0h2-----2---2-2---2-2-5---5-5-0-|

           Is there something more...        Than what I've been..

e--|-0---0-0-0---0-0-0-0-0-0---0-0---0---0-0-0---0-0-0-0-0-0---0-0---|
B--|-0---0-0-0---0-0-0-0-0-0---0-0---0---0-0-0---0-0-0-0-0-0---0-0---|
G#-|-6---6-6-6---6-6-6-6-6-8---8-8---6---6-6-6---6-6-6-6-6-8---8-8---|
E--|-5---5-5-5---5-5-5-5-5-7---7-7---5---5-5-5---5-5-5-5-5-7---7-7---|
B--|-3---3-3-3---3-3-3-3-3-0---0-0---3---3-3-3---3-3-3-3-3-0---0-0---|
E--|-----------------------0---0-0-------------------------0---0-0---|

          I've been...                   Looking for...


Bridge

e--|-0-0-----0-0-0-0-----0---0-0-0-0-0-0-----0-0-0-0-----0-----0-0-0-|
B--|-5-5-----5-5-5-5-----5---5-5-5-5-5-5-----5-5-5-5-----0-----0-0-0-|
G#-|-5-5-----5-5-5-5-----5---5-5-5-5-5-5-----5-5-5-5-----6-----6-6-6-|
E--|-4-4-----4-4-4-4-----4---4-4-4-4-4-4-----4-4-4-4-----5-----5-5-5-| x2
B--|-0h2-----2-2-0h2-----2---2-2-2-2-0h2-----2-2-0h2-----3-----3-3-3-|
E--|-0h2-----2-2-0h2-----2---2-2-2-2-0h2-----2-2-0h2-----------------|

e--|-0-----0---0-0-----0---0-0-0-0---0-----0---0-0-----0-0-0-0-0-0---|
B--|-0-----0---0-0-----0---0-0-0-0---0-----0---0-5-----5-5-5-5-5-5---|
G#-|-6-----6---6-6-----6---6-6-6-6---8-----8---8-5-----5-5-5-5-5-5---|
E--|-5-----5---5-5-----5---5-5-5-5---7-----7---7-4-----4-4-4-4-4-4---|
B--|-3-----3---3-3-----3---3-3-3-3---0-----0---0-2-----2-2-2-2-2-2---|
E--|---------------------------------0-----0---0-2-----2-2-2-2-2-2---|

           How much further...

e--|-0-----0---0-0-----0---0-0-0-0---0-----0---0-0-----0---0-0-0-0---|
B--|-0-----0---0-0-----0---0-0-0-0---0-----0---0-0-----0---0-0-0-0---|
G#-|-6-----6---6-6-----6---6-6-6-6---8-----8---8-8-----8---8-8-8-8---|
E--|-5-----5---5-5-----5---5-5-5-5---7-----7---7-7-----7---7-7-7-7---|
B--|-3-----3---3-3-----3---3-3-3-3---5-----5---5-0-----0---0-0-0-0---|
E--|---------------------------------5-----5---5-0-----0---0-0-0-0---|

           How much longer...        finally     know?

e--|-0-----0---0-0-----0---0-0-0-0---0-----0---0-0-----0---0-0-0-0---|
B--|-0-----0---0-0-----0---0-0-0-0---0-----0---0-5-----5---5-5-5-5---|
G#-|-6-----6---6-6-----6---6-6-6-6---8-----8---8-5-----5---5-5-5-5---|
E--|-5-----5---5-5-----5---5-5-5-5---7-----7---7-4-----4---4-4-4-4---|
B--|-3-----3---3-3-----3---3-3-3-3---5-----5---5-2-----2---2-2-2-2---|
E--|---------------------------------5-----5---5-2-----2---2-2-2-2---|

           'Cause I'm looking...     just can't   see...

e--|-0-----0---0-0-----0---0-0-0-0---0-----0---0-0-----0---0-0-0-0---|
B--|-0-----0---0-0-----0---0-0-0-0---0-----0---0-0-----0---0-0-0-0---|
G#-|-6-----6---6-6-----6---6-6-6-6---0-----0---0-0-----0---0-0-0-0---|
E--|-5-----5---5-5-----5---5-5-5-5---0-----0---0-0-----0---0-0-0-0---|
B--|-3-----3---3-3-----3---3-3-3-3---0-----0---0-0-----0---0-0-0-0---|
E--|---------------------------------0-----0---0-0-----0---0-0-0-0---|

     front of me....                 In front of me.


Chorus (with intro)

e--|---------------------------------|
B--|-------2---3---2-----------------|
G#-|-------------------1---0---------|
E--|---------------------------------|  x2
B--|-0h2-2---2---2---2---2-----0---0-|
E--|-0h2-2---2---2---2---2-----0---0-|

     Show me what its for....

e--|-0---0-0-0---0-0-0-0-0-0---0-0---0---0-0-0---0-0-0-0-0-0---0-0---|
B--|-0---0-0-0---0-0-0-0-0-0---0-0---0---0-0-0---0-0-0-0-0-0---0-0---|
G#-|-6---6-6-6---6-6-6-6-6-8---8-8---6---6-6-6---6-6-6-6-6-8---8-8---|
E--|-5---5-5-5---5-5-5-5-5-7---7-7---5---5-5-5---5-5-5-5-5-7---7-7---|
B--|-3---3-3-3---3-3-3-3-3-0---0-0---3---3-3-3---3-3-3-3-3-0---0-0---|
E--|-----------------------0---0-0-------------------------0---0-0---|

     I've been crawling....          dark, looking....

e--|---------0---0-0---0-0-0---0-0-0---------0---0-0---0-0-0---0-0-0-|
B--|---------5---5-5---5-5-0---0-0-0---------5---5-5---5-5-0---0-0-0-|
G#-|---------5---5-5---5-5-8---8-8-8---------5---5-5---5-5-8---8-8-8-|
E--|---------4---4-4---4-4-7---7-7-7---------4---4-4---5-5-7---7-7-7-|
B--|-0h2-----2---2-2---2-2-5---5-5-0-0h2-----2---2-2---2-2-5---5-5-0-|
E--|-0h2-----2---2-2---2-2-5---5-5-0-0h2-----2---2-2---2-2-5---5-5-0-|

           Is there something more...        Than what I've been..

e--|-0---0-0-0---0-0-0-0-0-0---0-0---0---0-0-0---0-0-0-0-0-0---0-0---|
B--|-0---0-0-0---0-0-0-0-0-0---0-0---0---0-0-0---0-0-0-0-0-0---0-0---|
G#-|-6---6-6-6---6-6-6-6-6-8---8-8---6---6-6-6---6-6-6-6-6-8---8-8---|
E--|-5---5-5-5---5-5-5-5-5-7---7-7---5---5-5-5---5-5-5-5-5-7---7-7---|
B--|-3---3-3-3---3-3-3-3-3-0---0-0---3---3-3-3---3-3-3-3-3-0---0-0---|
E--|-----------------------0---0-0-------------------------0---0-0---|

          I've been...                   Looking for...


Outro

e--|-0-0-----0---0-0---0-0-0-0-0-0-0-|
B--|-5-5-----5---5-5---0-0-0-0-0-0-0-|
G#-|-5-5-----5---5-5---8-8-8-^-8-8-8-|
E--|-4-4-----4---4-4---7-7-7-7-7-7-7-| x3
B--|-0h2-----2---2-2---5-5-5-5p0-0-0-|
E--|-0h2-----2---2-2---5-5-5-5p0-0-0-|
                             
                             ^ = 10th fret

e--|-0-0-----0---0-0---0-0-0-0-------||
B--|-5-5-----5---5-5---0-0-0-0-------||
G#-|-5-5-----5---5-5---8-8-8-8-------||
E--|-4-4-----4---4-4---7-7-7-7-------||
B--|-0h2-----2---2-2---5-5-5-5-------||
E--|-0h2-----2---2-2---5-5-5-5-------||

                             ^ - hold last chord out

2.REMEMBER ME

End of Pre Verse:
e|---|
B|---|
G|5~-|
D|5~-|
A|3~-|
D|---|

Verse:  "I wanted to be just like..."  (2x)
e|---------------------------------------------------------------------------|
B|---------------------------------------------------------------------------|
G|---------------------------------------------------------------------------|
D|---------------------------------------------------------------------------|
A|0-12-10-0-10-12-0---3-5-0-10-12-10-5--0-12-10-0-10-12-0---3-5-0-10-12-10-3-|
D|0-12-10-0-10-12-0---3-5-0-10-12-10-5--0-12-10-0-10-12-0---3-5-0-10-12-10-3-|

Chorus:  "Do you remember now..."  (2x)
e|---------------------------------------------------------------------------|
B|---------------------------------------------------------------------------|
G|----------------------------------------------------------------5\3-3-3-3-3|
D|0-0x--*-*-*-*-0-0x--*-*-*-*-*-0---3-3x----------3-3x--*-*-*-*-*-5\3-3-3-3-3|
A|0-0x--5-5-5-5-0-0x--5-5-5-5-5-0---3-3x--*-*-*-*-3-3x--5-5-5-5-5-3\1-1-1-1-1|
D|0-0x----------0-0x------------0---3-3x--5-5-5-5-3-3x-----------------------|

Chorus Cont'd:
e|---------------------------------------------------------------------------|
B|---------------------------------------------------------------------------|
G|3-3-3-3-5-5-5-5-5-5-5-5---5---5---5----------------------------------------|
D|3-3-3-3-5-5-5-5-5-5-5-5---5---5---5----------------------------------------|
A|1-1-1-1-3-3-3-3-3-3-3-3-0-3-0-3-0-3----------------------------------------|
D|------------------------0---0---0------------------------------------------|

Pre Verse:  (Bass only)

Repeat Verse:  (2x)

Repeat Chorus:  (2x)

Pre Bridge:  "Part of me, part of me, yeah yeah"  (3x)
e|---------------------------------------------------------------------------|
B|---------------------------------------------------------------------------|
G|--5---5---5----------------------------------------------------------------|
D|--5---5---5----------------------------------------------------------------|
A|0-3-0-3-0-3----------------------------------------------------------------|
D|0---0---0------------------------------------------------------------------|

Bridge:  Guitar 1  "You're never going to be a..."  (Come in on 3rd bar)
e|---------------------------------------------------------------------------|
B|---------------------------------------------------------------------------|
G|5~---5---5---5---5---5---5---5---5---5---5---5---5-------------------------|
D|5~---5---5---5---5---5---5---5---5---5---5---5---5-------------------------|
A|3~-0-3-0-3-0-3-0-3-0-3-0-3-0-3-0-3-0-3-0-3-0-3-0-3-------------------------|
D|---0---0---0---0---0---0---0---0---0---0---0---0---------------------------|

Bridge:  Guitar 2  "You're never going to be a..."  (Repeat quite a few times)
e|---------------------------------------------------------------------------|
B|---------------------------------------------------------------------------|
G|10-10-10-9-9-9-------------------------------------------------------------|
D|-x--x--x-x-x-x-------------------------------------------------------------|
A|-8--8--8-7-7-7-------------------------------------------------------------|
D|---------------------------------------------------------------------------|

Repeat Chorus:  (2x)

Repeat Pre Bridge:  Guitar 1 and Guitar 2 plays Bridge part

3.RUNNING AWAY

Intro/Verses:

------------------------------------------------------------------------
------------------------------------------------------------------------
------------------------------------------------------------------------
-10-10-10-7-x-9-9-9-9-x-10-10-10-7-x-9-9-9-9-x-5-5-5-7-x-9-9-9-9-x------
-7--7--7--7-x-7-7-7-7-x-7--7--7--7-x-7-7-7-7-x-5-5-5-5-x-5-5-5-5-x------
-7--7--7--7-x-7-7-7-7-x-7--7--7--7-x-7-7-7-7-x-5-5-5-5-x-5-5-5-5-x------

------------------------------------------------------------------------
------------------------------------------------------------------------
-----------5-5-5-4------------------------------------------------------
-3-3-3-5-x-5-5-5-5------------------------------------------------------
-3-3-3-3-x-3-3-3-3------------------------------------------------------
-3-3-3-3-x-3-3-3-3------------------------------------------------------


Chorus:

------------------------------------------------------------------------
------------------------------------------------------------------------
------------------------------------------------------------------------
-7~--7-7-7--9~--9-9-9--10~--10-10-10--0~--0-0-0--3~--3-3-3-3--3-3-3-----
-7~--7-7-7--9~--9-9-9--10~--10-10-10--0~--0-0-0--3~--3-3-3-3--3-3-3-----
-7~--7-7-7--9~--9-9-9--10~--10-10-10--0~--0-0-0--3~--3-3-3-3--3-3-3-----

------------------------------------------------------------------------
------------------------------------------------------------------------
------------------------------------------------------------------------
-10--10-10-10--5~-------------------------------------------------------
-10--10-10-10--5~-------------------------------------------------------
-10--10-10-10--5~-------------------------------------------------------

------------------------------------------------------------------------
------------------------------------------------------------------------
------------------------------------------------------------------------
-7~--7-7-7--2~--2-2-2--10~--10-10-10--0~--0-0-0--3~--3-3-3-3--3-3-3-----
-7~--7-7-7--2~--2-2-2--10~--10-10-10--0~--0-0-0--3~--3-3-3-3--3-3-3-----
-7~--7-7-7--2~--2-2-2--10~--10-10-10--0~--0-0-0--3~--3-3-3-3--3-3-3-----

------------------------------------------------------------------------
------------------------------------------------------------------------
------------------------------------------------------------------------
-10--10-10-10--5~-------------------------------------------------------
-10--10-10-10--5~-------------------------------------------------------
-10--10-10-10--5~-------------------------------------------------------

Interlude right after chorus (quickly picked):

-------0-----------0-----------0-----------0----------------------------
-----0---0-------0---0-------0---0-------0---0--------------------------
---5-------5---5-------5---5-------5---5------5-------------------------
-7-----------7-----------7-----------7----------------------------------
------------------------------------------------------------------------
------------------------------------------------------------------------

Clean Bridge (play as many times as needed):

-------0-----------0-----------0-----------0----------------------------
-----0---0-------0---0-------0---0-------0---0--------------------------
---5-------5---5-------5---5-------5---5-------5------------------------
-7-----------7-----------7-----------7----------------------------------
------------------------------------------------------------------------
------------------------------------------------------------------------

-------0-----------0-----------0-----------0----------------------------
-----0---0-------0---0-------0---0-------0---0--------------------------
---0-------0---0-------0---0-------0---0-------0------------------------
-2-----------2-----------2-----------2----------------------------------
------------------------------------------------------------------------
------------------------------------------------------------------------

-------0-----------0-----------0-----------0----------------------------
-----0---0-------0---0-------0---0-------0---0--------------------------
---5-------5---5-------5---5-------5---5-------5------------------------
-7-----------7-----------7-----------7----------------------------------
------------------------------------------------------------------------
------------------------------------------------------------------------

-------0-----------0-----------0-----------0----------------------------
-----0---0-------0---0-------0---0-------0---0--------------------------
---0-------0---0-------0---2-------2---5-------5------------------------
-2-----------2-----------3----------------------------------------------
-------------------------------------5----------------------------------
------------------------------------------------------------------------

Distorted Bridge:

------------------------------------------------------------------------
------------------------------------------------------------------------
------------------------------------------------------------------------
-7-7--7--x-7-----7-7--7--x-7~---2-2--2--x-2--x-x-x-x---2-2--2--x-2------
-7-7--7--x-7-----7-7--7--x-7~---2-2--2--x-2--x-x-x-x---2-2--2--x-2------
-7-7--7--x-7-----7-7--7--x-7~---2-2--2--x-2--x-x-x-x---2-2--2--x-2------

------------------------------------------------------------------------
------------------------------------------------------------------------
------------------------------------------------------------------------
-7-7--7--x-7-----7-7--7--x-7--7-7-7-7--0--0-0-0--0-0-0--3--3-3-3--5~----
-7-7--7--x-7-----7-7--7--x-7--7-7-7-7--0--0-0-0--0-0-0--3--3-3-3--5~----
-7-7--7--x-7-----7-7--7--x-7--7-7-7-7--0--0-0-0--0-0-0--3--3-3-3--5~----

4.PIECES

Intro.1
e|-------------------------------------------------------
B|-----12-----12-----12-----12-----12-----12-----12------
G|------9------9------9------9------9------9------9------
D|-------------------------------------------------------
A|-7-7----7-7----7-7----7-7----7-7----7-7----7-7---------
E|--------------------------------------------------12/--
   ...    ...    ...    ...    ...    ...    ...

e|---------------------------------------------------------------------
B|-----12-----12-----12-----12-----12-----12--12-12-12-12-12-12-12-12--
G|------9------9------9------9------9------9---9--9--9--9--9--9--9--9--
D|---------------------------------------------------------------------
A|---------------------------------------------------------------------
E|-0-0----0-0----0-0----0-0----0-0----0-0------0--0--0--0--0--0--0--0--
   ...    ...    ...    ...    ...    ...    

  Intro.2
e|---------------------------------------------------------------------
B|----------------------------------------------------------12-----12--
G|-7/9-9-9-9-9-------------------------7/9-9-9-9-9-----------9------9--
D|-7/9-9-9-9-9-8-8-8-8\7-7-7-7-7-2-2-2-7/9-9-9-9-9-8-8-8---------------
A|-5/7-7-7-7-7-8-8-8-8\7-7-7-7-7-2-2-2-5/7-7-7-7-7-8-8-8---------------
E|-------------6-6-6-6\5-5-5-5-5-0-0-0-------------6-6-6-6-5----6-5----

e|--------------------------------------------------------------
B|--------------------------------------------------------------
G|-7/9-9-9-9-9-------------------------5-5-5-5------------------
D|-7/9-9-9-9-9-8-8-8-8\7-7-7-7-7-2-2-2-5-5-5-5-5-5-5-5-7-7-7-7--
A|-5/7-7-7-7-7-8-8-8-8\7-7-7-7-7-2-2-2-3-3-3-3-5-5-5-5-7-7-7-7--
E|-------------6-6-6-6\5-5-5-5-5-0-0-0-3-3-3-3-3-3-3-3-5-5-5-5--
                                         ...   ...     ...     2x

  Verse
e|---------------------------------------------------------------------------------------
B|---------------------------------------------------------------------------------------
G|-7/9-9-9-9-9-------7/9-9-9-9-----------------7/9-9-9-9-9------5-5-5-5------------------
D|-7/9-9-9-9-9-8\----7/9-9-9-9-8x--8-7x--8-7x--7/9-9-9-9-9-8\---5-5-5-5-5-5-5-5-7-7-7-7--
A|-5/7-7-7-7-7-8\----5/7-7-7-7-8x--8-7x--8-7x--5/7-7-7-7-7-8\---3-3-3-3-5-5-5-5-7-7-7-7--
E|-------------6\--------------6x--6-5x--6-5x--------------6\---3-3-3-3-3-3-3-3-5-5-5-5--
                                                                  ...   ...     ...     2x

  Chorus
e|------------------------------------------------------------------
B|------------------------------------------------------------------
G|---------------------------------5-5-5-5-5-5-5-5-5-5-5-5-5-5-5-5--
D|-2-2-2-2-2-2-2-2-2-2-2-2-2-2-2-2-5-5-5-5-5-5-5-5-5-5-5-5-5-5-5-5--
A|-2-2-2-2-2-2-2-2-2-2-2-2-2-2-2-2-3-3-3-3-3-3-3-3-3-3-3-3-3-3-3-3--
E|-0-0-0-0-0-0-0-0-0-0-0-0-0-0-0-0----------------------------------

e|------------------------------------------------------------------
B|------------------------------------------------------------------
G|---------------------------------5-5-5-5-5-5-5-5-7-7-7-7-7-7-7-7--
D|-7-7-7-7-7-7-7-7-7-7-7-7-7-7-7-7-5-5-5-5-5-5-5-5-7-7-7-7-7-7-7-7--
A|-7-7-7-7-7-7-7-7-7-7-7-7-7-7-7-7-3-3-3-3-3-3-3-3-5-5-5-5-5-5-5-5--
E|-5-5-5-5-5-5-5-5-5-5-5-5-5-5-5-5-----------------5-5-5-5-5-5-5-5--
                                                                   2x

  Tag
e|------------------------------------------------------------------
B|-----------------------------------------12-----12-----12-----12--
G|-7/9-9-9-9-9------------------------------9------9------9------9--
D|-7/9-9-9-9-9-8-8-8-8\7-7-7-7-7-2-2-2------------------------------
A|-5/7-7-7-7-7-8-8-8-8\7-7-7-7-7-2-2-2-7-7----7-7----7-7----7-7-----
E|-------------6-6-6-6\5-5-5-5-5-0-0-0------------------------------
                                       ...    ...    ...    ...

  Bridge
e|----------------------------------------------------------
B|-----12-----12-----12-----12-----12-----12-----12-----12--
G|------9------9------9------9------9------9------9------9--
D|----------------------------------------------------------
A|-7-7----7-7----7-7----7-7----7-7----7-7----7-7----7-7-----
E|----------------------------------------------------------
   ...    ...    ...    ...    ...    ...    ...    ...

e|------------------------------------------------------
B|-----12-----------12-----------12-----------12--------
G|------9-----7------9-----7------9-----7------9-----7--
D|------------9------------9------------9------------9--
A|------------------------------------------------------
E|-0-0----0-0---0-0----0-0---0-0----0-0---0-0----0-0----

e|------------------------------------------------------
B|-----12-----------12-----------12-----------12--------
G|------9-----7------9-----7------9-----7------9-----7--
D|------------9------------9------------9------------9--
A|------------------------------------------------------
E|-8-8----8-8---8-8----8-8---8-8----8-8---8-8----8-8----

e|------------------------------------------------------
B|-----12-----------12-----------12-----------12--------
G|------9-----7------9-----7------9-----7------9-----7--
D|------------9------------9------------9------------9--
A|------------------------------------------------------
E|-0-0----0-0---0-0----0-0---0-0----0-0---0-0----0-0----

e|------------------------------------------------------
B|-----12-----------12-----------12-----------12--------
G|------9-----7------9-----7------9-----7------9-----7-- different last
D|------------9------------9------------9------------9-- two notes
A|------------------------------------------------------
E|-8-8----8-8---8-8----8-8---8-8----8-8---8-8----8-8----

e|----------------------------------------------------------
B|-----12-----12-----12-----12-----12-----12-----12-----12--
G|------9------9------9------9------9------9------9------9--
D|----------------------------------------------------------
A|----------------------------------------------------------
E|-0-0----0-0----0-0----0-0----0-0----0-0----0-0----0-0-----
   ...    ...    ...    ...    ...    ...    ...    ...

e|--------------------------------------------------
B|--------------------------------------------------
G|-5-5-5-5-5-5-5-5-5-5-5-5--------------------------
D|-5-5-5-5-5-5-5-5-5-5-5-5-5-5-5-5-5-5-5-5-5-5-5-5--
A|-3-3-3-3-3-3-3-3-3-3-3-3-5-5-5-5-5-5-5-5-5-5-5-5--
E|-3-3-3-3-3-3-3-3-3-3-3-3-3-3-3-3-3-3-2-2-2-2-2-2--
   ...   ...   ...   ...   ...   ...   ...   ...

e|----------------------------------------------------------
B|-----12-----12-----12-----12-----12-----12-----12-----12--
G|------9------9------9------9------9------9------9------9--
D|----------------------------------------------------------
A|----------------------------------------------------------
E|-0-0----0-0----0-0----0-0----0-0----0-0----0-0----0-0-----
   ...    ...    ...    ...    ...    ...    ...    ...

e|------------------------------------------------------
B|------------------------------------------------------
G|-5-5-5-5-5-5-5-5-5-5-5-5---------------7-7-7-7-7-7-7--
D|-5-5-5-5-5-5-5-5-5-5-5-5-5-5-5-5-5-5-5-7-7-7-7-7-7-7--
A|-3-3-3-3-3-3-3-3-3-3-3-3-5-5-5-5-5-5-5-5-5-5-5-5-5-5--
E|-3-3-3-3-3-3-3-3-3-3-3-3-3-3-3-3-3-3-3-5-5-5-5-5-5-5--
   ...   ...   ...   ...   


e|----------------------------------------------------
B|----------------------------------------------------
G|-9~----5~----7~-------------------------------------
D|-9~----5~----7~----5-5-5-5-5-5-5-5-7-7-7-7-7-7-7-7--
A|-7~----3~----5~----3-3-3-3-3-3-3-3-5-5-5-5-5-5-5-5--
E|-7~----3~----5~----3-3-3-3-3-3-3-3-5-5-5-5-5-5-5-5--
                     ...........................

  Outro
e|--------------------------------------------------------------------------
B|--------------------------------------------------------------------------
G|-7/9-9-9-9-9-------------------------7/9-9-9-9-9--------------------------
D|-7/9-9-9-9-9-8-8-8-8\7-7-7-7-7-2-2-2-7/9-9-9-9-9-8-8-8-8\7-7-7-7-7-2-2-2--
A|-5/7-7-7-7-7-8-8-8-8\7-7-7-7-7-2-2-2-5/7-7-7-7-7-8-8-8-8\7-7-7-7-7-2-2-2--
E|-------------6-6-6-6\5-5-5-5-5-0-0-0-------------6-6-6-6\5-5-5-5-5-0-0-0--

e|--------------------------------------------------------------------
B|--------------------------------------------------------------------
G|-7/9-9-9-9-9-------------------------7/9-9-9-9-9--------------------
D|-7/9-9-9-9-9-8-8-8-8\7-7-7-7-7-2-2-2-7/9-9-9-9-9-8-8-8--8-7-xx-8-7--
A|-5/7-7-7-7-7-8-8-8-8\7-7-7-7-7-2-2-2-5/7-7-7-7-7-8-8-8--8-7-xx-8-7--
E|-------------6-6-6-6\5-5-5-5-5-0-0-0-------------6-6-6--6-5-xx-6-5--

5.LET YOU KNOW

EBEG#Be tuning


Intro
----------0---------------0---------------0---------------0--------|
--------2---2-----------2---2-----------2---2-----------2---2------|
------3-------3-------3-------3-------3-------3-------3-------3----|
----2-----------2---2-----------2---2-----------2---2-----------2--|
--0---------------0---------------0---------------0---------------0|
-------------------------------------------------------------------|
                                                                              
Verse
-------0---------------0----------7------7---7------------0-------------------
-----5---5-----------5---5----------8------8---8------3-0---0-3---0-----------
---7-------7-------7-------7---10-----10---------10-------------1---1---------
-7-----------7---7-----------7----------------------0-------------------------
---------------0--------------------------------------------------------------
------------------------------------------------------------------------------
                                                                              

-----0---0-----0----|
---5---5---0-5---5--|
-3-----------------3|
--------------------|
--------------------|
--------------------|
                                                                              
Chorus1
------------------------------------------------------------------------------
------------------------------------------------------------------------------
------------------------------------------------------------------------------
-7-7-x-7-7-x-7-5-5-x-5-5-x-5-4-4-x-4-4-x-4-10\-10\-10\-10\-7-7-x-7-7-x-7------
-7-7-x-7-7-x-7-5-5-x-5-5-x-5-4-4-x-4-4-x-4-10\-10\-10\-10\-7-7-x-7-7-x-7------
-7-7-x-7-7-x-7-5-5-x-5-5-x-5-4-4-x-4-4-x-4-10\-10\-10\-10\-7-7-x-7-7-x-7------
                                                                              

----------------------------------------------------------|
----------------------------------------------------------|
----------------------------------------------------------|
-5-5-x-5-5-x-5-4-4-x-4-4-x-4-10\-10\-10\-10\-7------------|
-5-5-x-5-5-x-5-4-4-x-4-4-x-4-10\-10\-10\-10\-7------------|
-5-5-x-5-5-x-5-4-4-x-4-4-x-4-10\-10\-10\-10\-7------------|
                                                                              
Interlude 1
---7---7---7-7---5---5---5-5----------------------------|
-7-------7-----5-------5--------------------------------|
-----------------------------------5-----5-------6-----6|
---------------------------------7-----7---5---7---5-7--|
-----------------------------5-------5------------------|
--------------------------------------------------------|
                                                                              
Interlude 2
------------------------------------------------------------------------------
------------------------------------------------------------------------------
-7-7-7-8-8-8-10-10-10-10-10-10-10-10-7-7-7-8-8-8-10-10-10-10-10-10-10-10------
------------------------------------------------------------------------------
-4-4-4-5-5-5--7--7--7--7--7--7--7--7-4-4-4-5-5-5--7--7--7--7--7--7--7--7------
------------------------------------------------------------------------------
                                                                              

--------------------------------------------------------------------------|---
--------------------------------------------------------------------------|---
-7-7-7-8-8-8-10-10-10-10-10-10-10-10-6-6-6-8-8-8-10-10-10-10-10-10-10-10--|---
--------------------------------------------------------------------------|---
-4-4-4-5-5-5--7--7--7--7--7--7--7--7-3-3-3-5-5-5--7--7--7--7--7--7--7--7--|---
--------------------------------------------------------------------------|---
                                                                              
Chorus 2
------------------------------------------------------------------------------
------------------------------------------------------------------------------
------------------------------------------------------------------------------
-7-7-7-7-7-7-7-7-5-5-5-5-5-5-5-5-4-4-4-4-4-4-4-4-10\-10\-10\-10\--------------
-7-7-7-7-7-7-7-7-5-5-5-5-5-5-5-5-4-4-4-4-4-4-4-4-10\-10\-10\-10\--------------
-7-7-7-7-7-7-7-7-5-5-5-5-5-5-5-5-4-4-4-4-4-4-4-4-10\-10\-10\-10\--------------
                                                                              

------------------------------------------------------------------------------
------------------------------------------------------------------------------
------------------------------------------------------------------------------
-7-7-7-7-7-7-7-7-5-5-5-5-5-5-5-5-4-4-4-4-4-4-4-4-10\-10\-10\-10\-7------------
-7-7-7-7-7-7-7-7-5-5-5-5-5-5-5-5-4-4-4-4-4-4-4-4-10\-10\-10\-10\-7------------
-7-7-7-7-7-7-7-7-5-5-5-5-5-5-5-5-4-4-4-4-4-4-4-4-10\-10\-10\-10\-7------------
                                                                              
6.BETTER

Intro:

x2
e------------------------------------------------
b------------------------------------------------
g------------------------------------------------
d-0---2----4----10---10---0---2----4----10---10--
a-0---2----4----10---10---0---2----4----10---10--
d-0---2----4----10---10---0---2----4----10---10--

Verses: w/ phaser

e-----------------------------------------------------------------
b-----------------------------------------------------------------
g-----------------------------------------------------------------
d-0-0-2-4-4-----0-0-2-2-4-4-------0-0-2-4-4-----0-0-2-2-4-4-------
a-----------3-3-------------3-3-------------3-3-------------3-3-0-
d-------------------------------0---------------------------------

e-----------------------------------------------------------------
b-----------------------------------------------------------------
g------------------------------------------------------------<2b>-
d-0-0-2-2-4-4-----0-0-2-2-4-4-------0-0-2-4-4-----0-0-2-2-4-4-----
a-------------3-3-------------3-3-0-----------3-3-----------------
d-----------------------------------------------------------------

e-----------------------------------------------------------------
b-----------------------------------------------------------------
g-----------------------------------------------------------------
d-----------------------------------------------------------------
a-0-0-2-4-4-3-3-3-0-2-4-4-4-3-3-3-0-2-4-4-4-3-3-3-0-2-4-4-4-3-3-3-
d-0-0-2-4-4-------0-2-4-4-4-------0-2-4-4-4-------0-2-4-4-4-------

e-----------------------------------------------------------------
b-----------------------------------------------------------------
g-----------------------------------------------------------------
d---------------------------------------------------------5-5-5-5-
a-0-0-2-4-4-3-3-3-0-2-4-4-4-3-3-3-0-0-2-4-4-3-3-0-0-2-4-4-3-3-3-3-
d-0-0-2-4-4-------0-2-4-4-4-------0-0-2-4-4-------0-2-4-4---------

e-----------------------------------------------------------------
b-----------------------------------------------------------------
g-----------------------------------------------------------------
d-10-10-10-10-----------10-10-10---10-10-10-10------5-5-5-5-5-5---
a-10-10-10-10-----------10-10-10---10-10-10-10------5-5-5-5-5-5---
d-10-10-10-10-----------10-10-10---10-10-10-10------5-5-5-5-5-5-0-

Chorus:

e-------------------------------------------------
b-------------------------------------------------
g-------------------------------------------------
d-7---7-7---7---7-7--7-----5---5-5---5---5-5-5-5--
a-5---5-5---4---4-4--4--0--3---3-3---2---2-2-2-2--
d-------------------------------------------------

e--------------------------1---1-1---1--1-1--1-1--
b--------------------------1---1-1---1--1-1--1-1--
g--------------------------3---3-3---2--2-3--3-3--
d-7---7-7---7---7-7--7-----3---3-3---3--3-3--3-3--
a-5---5-5---4---4-4--4--0--1---1-1---0--0-1--1-1--
d-------------------------------------------------

e-------------------------------------------------
b-------------------------------------------------
g-------------------------------------------------
d-7---7-7---7---7-7--7-----5---5-5---5---5-5-5-5--
a-5---5-5---4---4-4--4--0--3---3-3---2---2-2-2-2--
d-------------------------------------------------

e-1--1--1--1--1--1--1--1--3--3--3--3--3-3-3-3-3-3-3-3-
b-1--1--1--1--1--1--1--1--3--3--3--3--3-3-3-3-3-3-3-3-
g-3--3--3--3--3--3--3--3--5--5--5--5--5-5-5-5-5-5-5-5-
d-3--3--3--3--3--3--3--3--5--5--5--5--5-5-5-5-5-5-5-5-
a-1--1--1--1--1--1--1--1--3--3--3--3--3-3-3-3-3-3-3-3-
d-----------------------------------------------------

Interlude:

x2
e--------------------------------------------------------
b--------------------------------------------------------
g--------------------------------------------------------
d-0---2----4----10---10--10---0---2----4----10---10--10--
a-0---2----4----10---10--10---0---2----4----10---10--10--
d-0---2----4----10---10--10---0---2----4----10---10--10--

after 2nd chorus

e-1--1--1--1--1--1--1--1--3--3--3--3--3-3-3-3-3-3-3-3-
b-1--1--1--1--1--1--1--1--3--3--3--3--3-3-3-3-3-3-3-3-
g-3--3--3--3--3--3--3--3--5--5--5--5--5-5-5-5-5-5-5-5-
d-3--3--3--3--3--3--3--3--5--5--5--5--5-5-5-5-5-5-5-5-
a-1--1--1--1--1--1--1--1--3--3--3--3--3-3-3-3-3-3-3-3-
d-----------------------------------------------------
gtr. 2

e-------------------------8-----------------8---8---8-
b-----------------------------------------------------
g-----------------------------------------------------
d-----------------------------------------------------
a-----------------------------------------------------
d-----------------------------------------------------

D5 let ring

mini solo:

e--------------------------------------10--10--10--10-
b-7----------8----------------------------------------
g---------------------5------/9---7-------------------
d-----------------------------------------------------
a-----------------------------------------------------
d-----------------------------------------------------

Pre Chorus:

e-----------------------------------------------------
b-----------------------------------------------------
g-5-5-5-5---------5-5-5-------5-5-5-5---------5-5-5---
d-5-5-5-5---------5-5-5-------5-5-5-5---------5-5-5---
a-3-3-3-3---------3-3-3-------3-3-3-3---------3-3-3---
d-----------------------------------------------------

e-----------------------------------------------------
b-----------------------------------------------------
g-5-5-5-5---------5-5-5-------5-5-5-5-----------------
d-5-5-5-5---------5-5-5-------5-5-5-5---5-5-5-5-5-5-5-
a-3-3-3-3---------3-3-3-------3-3-3-3---5-5-5-5-5-5-5-
d---------------------------------------5-5-5-5-5-5-5-

7.READY FOR YOU

Standard Tuning: EADGBE

Guitar 1

Intro (Distortion)	       
E|-----|
B|-----|
G|-4-^-|
D|-4-^-|
A|-2-^-|
E|-----|
[ Tab from: http://www.guitartabs.cc/tabs/h/hoobastank/hoobastank_tab.html ]
Pre-Verse (Distortion)
E|------------------------|
B|-4-~~-5-~~-5-7h-~~-5-~~-|
G|-4-~~-4-~~-4-4h-~~-4-~~-|
D|------------------------|
A|------------------------|
E|------------------------|

Verse 1 (Distortion)
E|---------------------------------------------------------------------|
B|---------------------------------------------------------------------|
G|-4------4----4---44-2------2----2---22-------------------------------|
D|-4------4----4---44-2------2----2---22-5------5----5---55-2------2---|
A|-2-xxxx-2-xx-2-x-22-0-xxxx-0-xx-0-x-00-5------5----5---55-2------2---|
E|---------------------------------------3-xxxx-3-xx-3-x-33-0-xxxx-0-xx|

E|---------------------------------------------------------------------|
B|---------------------------------------------------------------------|
G|-----------4------4----4---44-2------2----2---22---------------------|
D|-6-6-666-6-4------4----4---44-2------2----2---22-2------2----2---22--|
A|-----------2-xxxx-2-xx-2-x-22-0-xxxx-0-xx-0-x-00-2------2----2---22--|
E|-------------------------------------------------0-xxxx-0-xx-0-x-00--|

E|---------------------------------------------------------------------|
B|---------------------------------------------------------------------|
G|---------------------------------------------------------------------|
D|-5555555555----------------------------------------------------------|
A|-5555555555----------------------------------------------------------|
E|-3333333333-pick slide-----------------------------------------------|

Chorus (Distortion)
E|------------0000000000-0000000000------------------------------------|
B|------------0000000000-0000000000------------------------------------|
G|-4444444444-2222222222-1111111111------------------------------------|
D|-4444444444-2222222222-2222222222-55555-77777------------------------|
A|-2222222222-0000000000-2222222222-55555-77777------------------------|
E|-2222222222------------0000000000-33333-55555------------------------|

Verse 2 (Distortion)
E|---------------------------------------------------------------------|
B|--------------------2------2----3---32-------------------------------|
G|-4------4----4---44-2------2----2---22-------------------------------|
D|-4------4----4---44-2------2----2---22-5------5----5---55-2------2---|
A|-2-xxxx-2-xx-2-x-22-0-xxxx-0-xx-0-x-00-5------5----5---55-2------2---|
E|---------------------------------------3-xxxx-3-xx-3-x-33-0-xxxx-0-xx|

E|---------------------------------------------------------------------|
B|------------------------------2------2----3---32---------------------|
G|-----------4------4----4---44-2------2----2---22---------------------|
D|-6-6-666-6-4------4----4---44-2------2----2---22-2------2----2---22--|
A|-----------2-xxxx-2-xx-2-x-22-0-xxxx-0-xx-0-x-00-2------2----2---22--|
E|-------------------------------------------------0-xxxx-0-xx-0-x-00--|

E|---------------------------------------------------------------------|
B|---------------------------------------------------------------------|
G|---------------------------------------------------------------------|
D|-5555555555----------------------------------------------------------|
A|-5555555555----------------------------------------------------------|
E|-3333333333----------------------------------------------------------|

Chorus Extension (Distortion)
E|---------------------------------------------------------------------|
B|---------------------------------------------------------------------|
G|---------------------------------------------------------------------|
D|-55555-77777---------------------------------------------------------|
A|-55555-77777---------------------------------------------------------|
E|-33333-55555---------------------------------------------------------|

Bridge (Clean)
E|-0-0000-0-0000-0-0-0000-0-0000-0-0-0000-0-0000-0---------------------|
B|-0-0000-0-0000-0-0-0000-0-0000-0-0-0000-0-0000-0---------------------|
G|-4-4444-4-4444-4-4-4444-4-4444-4-4-4444-4-4444-4---------------------|
D|-4-4444-4-4444-4-4-4444-4-4444-4-4-4444-4-4444-4-5-5555-7777---------|
A|-2-2222-2-2222-2-0-0000-0-0000-0-2-2222-2-2222-2-5-5555-7777---------|
E|---------------------------------0-0000-0-0000-0-3-3333-5555---------|

Outro (Distortion)
E|---------------------------------------------------------------------|
B|-4-Let Ring----------------------------------------------------------|
G|-3-Let Ring----------------------------------------------------------|
D|-4-Let Ring----------------------------------------------------------|
A|-2-Let Ring----------------------------------------------------------|
E|---------------------------------------------------------------------|


Guitar 2 

Intro\Pre-verse (Distortion)
E|---------------------------------------------------------------------|
B|---------------------------------------------------------------------|
G|-4-4-44-4-44-4-44-4--------------------------------------------------|
D|-4-4-44-4-44-4-44-4--------------------------------------------------|
A|-2-2-22-2-22-2-22-4--------------------------------------------------|
E|-2-2-22-2-22-2-22-2--------------------------------------------------|

3rd\4th Chorus (Distortion)
E|---------------------------------------------------------------------|
B|---------------------------------------------------------------------|
G|---------------------------------------------------------------------|
D|---------------------------------------------------------------------|
A|-----9-7-6-----9-7-6---9-7-6-----5-4-4/7-----------------------------|
E|-3/7-------3/5-------0-------1/3-------------------------------------|

1st Chorus Extension
E|-----------------------------|
B|-----------------------------|
G|-----------------------------|
D|-----------------------------|
A|-4/5-9-7-7/10----------------|
E|-----------------------------|

2nd Chorus Extension
E|-----------------------------------------------------|
B|-----------------------------------------------------|
G|-----------------------------------------------------|
D|-----------------------------------------------------|
A|-4/5-9-7-7/10-7/9-12-10-10/14-12-14-16-12-14-~~~-----|
E|-----------------------------------------------------|

8.UP AND GONE

---------------------------------------|------------------------------------|-
---------------------------------------|------------------------------------|-
---------------------------------------|------------------------------------|-
-4-4------------4---------------6------|---------4---------------6----------|-
-4-4------4---4---4---4-7-4---4---4---4|---4---4---4---4-7-4---4---4---4----|-
-4-4----4---4-------4-------4-------4--|-4---4-------4-------4-------4------|-
                                                                              

---------------------------------|------------------------------------------|-
---------------------------------|--------10---------------------13---------|-
---------------------------------|---------9---------------------12---------|-
---------2---------------4-------|---------7-------/-------------10---------|-
---2---2---2---2-6-2---2---2---2-|---7---7---7---7-/----10----10---10----10-|-
-2---2-------2-------2-------2---|-7---7-------7---/-10----10---------10----|-
                                                                              

---------------------------------|------------------------------------------|-
---------------------------------|------------------------------------------|-
------------------------4-4-4-3--|------------------------4-4-4-3-----------|-
-2-4-4-2-4--4-4-4-2-4-2-4-4-4-4--|-2-4-4-2-4--4-4-4-2-4-2-4-4-4-4-----------|-
-2-4-4-2-4--4-4-4-2-4-2----------|-2-4-4-2-4--4-4-4-2-4-2-------------------|-
-2-4-4-2-4--4-4-4-2-4-2----------|-2-4-4-2-4--4-4-4-2-4-2-------------------|-
                                                                              

------------------------------------------|-----------------------------------
------------------------------1010//13-13-|-----------------------------------
------------------------------9-9-//12-12-|-----------------------------------
-2-2-2-2-x-x-2-2-2-2--7^7^7^7-7-7-//10-10-|-----------------------------------
-2-2-2-2-x-x-2-2-2-2--7^7^7^7-7-7-//10-10-|-----------------------------------
-2-2-2-2-x-x-2-2-2-2--7^7^7^7-7-7-//10-10-|-----------------------------------
                                                                              

---------------------------------|------------------------------------------|-
---------------------------------|------------------------------------------|-
---------------------------------|------------------------------------------|-
---------4---------------6-------|-------4---------------6------------------|-
---4---4---4---4-7-4---4---4---4-|-4---4---4---4-7-4---4---4---4------------|-
-4---4-------4-------4-------4---|---4-------4-------4-------4--------------|-
                                                                              

---------------------------------|------------------------------------------|-
---------------------------------|--------10-------------------13-----------|-
---------------------------------|---------9-------------------12-----------|-
---------2-------6-------4-------|---------7-----/-------------10-----------|-
---2---2---2---2---2---2---2---2-|---7---7---7---/----10----10----10----10--|-
-2---2-------2-------2-------2---|-7---7-------7-/-10----10----------10-----|-
                                                                              

---------------------------------|------------------------------------------|-
---------------------------------|------------------------------------------|-
----------------------3b1/2------|----------------------3b1/2---------------|-
-2-4-4-2-4--4-4-4-2-4------------|-2-4-4-2-4--4-4-4-2-4---------------------|-
-2-4-4-2-4--4-4-4-2-4------------|-2-4-4-2-4--4-4-4-2-4---------------------|-
-2-4-4-2-4--4-4-4-2-4------------|-2-4-4-2-4--4-4-4-2-4---------------------|-
                                                                              

------------------------------------------|-----------------------------------
------------------------------1010//13-13-|-----------------------------------
------------------------------9-9-//12-12-|-----------------------------------
-2-2-2-2-x-x-2-2-2-2--7^7^7^7-7-7-//10-10-|-4-4---2-2---7-7-7--10-10-10-------
-2-2-2-2-x-x-2-2-2-2--7^7^7^7-7-7-//10-10-|-4-4---2-2---7-7-7--10-10-10-------
-2-2-2-2-x-x-2-2-2-2--7^7^7^7-7-7-//10-10-|-4-4---2-2---7-7-7--10-10-10-------


9.TOO LITTLE TOO LATE

Intro: (w/warm phaser)
e-------------------------------------------------
b-------------------------------------------------
g-9---9--9-9---9-9-9-9--9---9-9-9-9--9---9-9-9-9--
d-9---9--9-9---9-9-9-9--x---x-x-x-x--x---x-x-x-x--
a-7---7--7-7---7-7-7-7--7---7-7-7-7--7---7-7-7-7--
d-7---7--7-7---7-7-7-7--6---6-6-6-6--6---6-6-6-6--

e------------------------------------------------------
b------------------------------------------------------
g-7---7-7---7--7----7-7-7-7--x---x-x---x--x---x-x-x-x--
d-7---7-7---7--7----7-7-7-7--4---4-4---4--4---4-4-4-4--
a-5---5-5---5--5----5-5-5-5--0---0-0---0--0---0-0-0-0--
d-5---5-5---5--5----5-5-5-5--0---0-0---0--0---0-0-0-0--


(0:08)
e-----------------------------------------------------
b-----------------------------------------------------
g--------------0--------------------------------------
d---------10-------10---------------10-------------7--
a-----8-----------------8-------8-------------5-------
d-7-------------------------7------------5------------


Fill I (2x)
(0:12) (w/heavy distortion)
e------------------------------------------------------------------
b-5----5-----5--5----5--5/7--7\5----5---5--5----5--5/10--10---10---
g-x----x-----x--x----x--x-x--x-x----x---x--x----x--x--x---x----x---
d-2----2-----2--2----2--2/4--4\2----2---2--2----2--2/-7---7----7---
a------------------------------------------------------------------
d------------------------------------------------------------------
                                                                    
e------------------------------------------------------------------
b10---10--10/12-12/13----13--13---13----13\12-----12------12------
g-x----x---x-x--x--x-----x---x----x------x--x------x-------x------- 
d-7----7---7/9--9/10----10--10---10-----10\-9------9-------9-------
a------------------------------------------------------------------
d------------------------------------------------------------------

Verse 1 (2x)
(0:27) (Clean) (You can let ring each chord instead of playing as follow)
e-----------------------------------------------------------
b-----------------------------------------------------------
g-9-----9---9-9---9-9-9-9-9-9--9-----9---9-9---9-9-9-9-9-9--
d-9-----9---9-9---9-9-9-9-9-9--x-----x---x-x---x-x-x-x-x-x--
a-7-----7---7-7---7-7-7-7-7-7--7-----7---7-7---7-7-7-7-7-7--
d-7-----7---7-7---7-7-7-7-7-7--6-----6---6-6---6-6-6-6-6-6--

e-----------------------------------------------------------
b-----------------------------------------------------------
g-7-----7---7-7---7-7-7-7-7-7--x-----x---x-x---x-x-x-x-x-x--
d-7-----7---7-7---7-7-7-7-7-7--4-----4---4-4---4-4-4-4-4-4--
a-5-----5---5-5---5-5-5-5-5-5--0-----0---0-0---0-0-0-0-0-0--
d-5-----5---5-5---5-5-5-5-5-5--0-----0---0-0---0-0-0-0-0-0--

e-----------------------------------------------------------
b-----------------------------------------------------------
g------------------------------7-----7---7-7---7-7-7-7-7-7--
d-3-----3---3-3---3-3-3-3-3-3--7-----7---7-7---7-7-7-7-7-7--
a-3-----3---3-3---3-3-3-3-3-3--5-----5---5-5---5-5-5-5-5-5--
d-3-----3---3-3---3-3-3-3-3-3--5-----5---5-5---5-5-5-5-5-5--

Chorus 1 
(0:50) (w/heavy distortion)
e-----------------------------------------------------------------
b-----------------------------------------------------------------
g-------------------------------------------------7--7--7---7--7--
d-7--7--7---7--7--2--2--2---2--2--5--5--5---5--5--7--7--7---7--7--
a-7--7--7---7--7--2--2--2---2--2--5--5--5---5--5--5--5--5---5--5--
d-7--7--7---7--7--2--2--2---2--2--5--5--5---5--5------------------

e-----------------------------------------------------------------
b-----------------------------------------------------------------
g-------------------------------------------------11--11--11---11-
d-7--7--7---7--7--2--2--2---2--2--5--5--5---5--5---x---x---x----x-
a-7--7--7---7--7--2--2--2---2--2--5--5--5---5--5---9---9---9----9-
d-7--7--7---7--7--2--2--2---2--2--5--5--5---5--5------------------

e-----------------------------------------------------------------
b-----------------------------------------------------------------
g-------------------------------------------------x--x--x---x--x--
d-7--7--7---7--7--2--2--2---2--2--5--5--5---5--5--x--x--x---x--x--
a-7--7--7---7--7--2--2--2---2--2--5--5--5---5--5--x--x--x---x--x--
d-7--7--7---7--7--2--2--2---2--2--5--5--5---5--5------------------

e-----------------------------------------------------------------
b-----------------------------------------------------------------
g--2-2-2-2-2-2-2-2-2-2-2-2-2--------------------------------------
d--0-0-0-0-0-0-0-0-0-0-0-0-0------3--3---3---3-----5--5---5---5---
a--0-0-0-0-0-0-0-0-0-0-0-0-0------3--3---3---3-----5--5---5---5---
d--0-0-0-0-0-0-0-0-0-0-0-0-0------3--3---3---3-----5--5---5---5---

Verse 2 (2x)
(1:06) (clean) (You can let ring each chord instead of playing as follow)
e-----------------------------------------------------------
b-----------------------------------------------------------
g-9-----9---9-9---9-9-9-9-9-9--9-----9---9-9---9-9-9-9-9-9--
d-9-----9---9-9---9-9-9-9-9-9--x-----x---x-x---x-x-x-x-x-x--
a-7-----7---7-7---7-7-7-7-7-7--7-----7---7-7---7-7-7-7-7-7--
d-7-----7---7-7---7-7-7-7-7-7--6-----6---6-6---6-6-6-6-6-6--

e-----------------------------------------------------------
b-----------------------------------------------------------
g-7-----7---7-7---7-7-7-7-7-7--x-----x---x-x---x-x-x-x-x-x--
d-7-----7---7-7---7-7-7-7-7-7--4-----4---4-4---4-4-4-4-4-4--
a-5-----5---5-5---5-5-5-5-5-5--0-----0---0-0---0-0-0-0-0-0--
d-5-----5---5-5---5-5-5-5-5-5--0-----0---0-0---0-0-0-0-0-0--

e-----------------------------------------------------------
b-----------------------------------------------------------
g------------------------------7-----7---7-7---7-7-7-7-7-7--
d-3-----3---3-3---3-3-3-3-3-3--7-----7---7-7---7-7-7-7-7-7--
a-3-----3---3-3---3-3-3-3-3-3--5-----5---5-5---5-5-5-5-5-5--
d-3-----3---3-3---3-3-3-3-3-3--5-----5---5-5---5-5-5-5-5-5--

Chorus 2 (2x)
(1:29) (w/heavy distortion)
e-----------------------------------------------------------------
b-----------------------------------------------------------------
g-------------------------------------------------7--7--7---7--7--
d-7--7--7---7--7--2--2--2---2--2--5--5--5---5--5--7--7--7---7--7--
a-7--7--7---7--7--2--2--2---2--2--5--5--5---5--5--5--5--5---5--5--
d-7--7--7---7--7--2--2--2---2--2--5--5--5---5--5------------------

e------------------------------------------------------------------
b------------------------------------------------------------------
g-------------------------------------------------11--11--11-11-11-
d-7--7--7---7--7--2--2--2---2--2--5--5--5---5--5---x---x---x--x--x-
a-7--7--7---7--7--2--2--2---2--2--5--5--5---5--5---9---9---9--9--9-
d-7--7--7---7--7--2--2--2---2--2--5--5--5---5--5-------------------

e-----------------------------------------------------------------
b-----------------------------------------------------------------
g-------------------------------------------------x--x--x---x--x--
d-7--7--7---7--7--2--2--2---2--2--5--5--5---5--5--x--x--x---x--x--
a-7--7--7---7--7--2--2--2---2--2--5--5--5---5--5--x--x--x---x--x--
d-7--7--7---7--7--2--2--2---2--2--5--5--5---5--5------------------

e-----------------------------------------------------------------
b-----------------------------------------------------------------
g--2-2-2-2-2-2-2-2-2-2-2-2-2--------------------------------------
d--0-0-0-0-0-0-0-0-0-0-0-0-0------3--3---3---3-----5--5---5---5---
a--0-0-0-0-0-0-0-0-0-0-0-0-0------3--3---3---3-----5--5---5---5---
d--0-0-0-0-0-0-0-0-0-0-0-0-0------3--3---3---3-----5--5---5---5---

Bridge: (3x)
(2:00) (w/heavy distortion)
e-----------------------------------------------------------------
b------------------------------19-19------------------------------
g-------------------------------------17-17--14-14------14--------
d---------------------------------------------------16------------
a-2-2-xxx-0-2-2-xx--0-2-------------------------------------17-17-
d-2-2-xxx-0-2-2-xx--0-2-------------------------------------------
                              <------play it fast w/phaser-------> 

(2:12) (1x)   
e----------------------------------------------
b----------------------------------------------
g--------------------14--14-14-14\13--13-------
d---------------------x---x--x--x---x--x-------
a-2-2-xxx-0-2-2-xx---12--12-12-12\11--11-------
d-2-2-xxx-0-2-2-xx-----------------------------


Fill II
(2:16) (w/heavy distortion)
e------------------------------------------------------------------
b-5----5-----5--5----5--5/7--7\5----5---5--5----5--5/10--10---10---
g-x----x-----x--x----x--x-x--x-x----x---x--x----x--x--x---x----x---
d-2----2-----2--2----2--2/4--4\2----2---2--2----2--2/-7---7----7---
a------------------------------------------------------------------
d------------------------------------------------------------------
                                                                    
e------------------------------------------------------------------
b10---10--10/12-12/13----13--13---13----13\12-----12------12------
g-x----x---x-x--x--x-----x---x----x------x--x------x-------x------- 
d-7----7---7/9--9/10----10--10---10-----10\-9------9-------9-------
a------------------------------------------------------------------
d------------------------------------------------------------------

e-----------------------------------------------------------
b-----------------------------------------------------------
g-----------------------------------------------------------
d-3-----3---3-3---3-3-3-3-3-3--7-----7---7-7---7-7-7-7-7-7--
a-3-----3---3-3---3-3-3-3-3-3--5-----5---5-5---5-5-5-5-5-5--
d-3-----3---3-3---3-3-3-3-3-3--5-----5---5-5---5-5-5-5-5-5--

Chorus 3 
(2:27) (w/heavy distortion)
e-----------------------------------------------------------------
b-----------------------------------------------------------------
g-------------------------------------------------7--7--7---7--7--
d-7--7--7---7--7--2--2--2---2--2--5--5--5---5--5--7--7--7---7--7--
a-7--7--7---7--7--2--2--2---2--2--5--5--5---5--5--5--5--5---5--5--
d-7--7--7---7--7--2--2--2---2--2--5--5--5---5--5------------------

e------------------------------------------------------------------
b------------------------------------------------------------------
g-------------------------------------------------11--11--11-11-11-
d-7--7--7---7--7--2--2--2---2--2--5--5--5---5--5---x---x---x--x--x-
a-7--7--7---7--7--2--2--2---2--2--5--5--5---5--5---9---9---9--9--9-
d-7--7--7---7--7--2--2--2---2--2--5--5--5---5--5-------------------

e-----------------------------------------------------------------
b-----------------------------------------------------------------
g-------------------------------------------------x--x--x---x--x--
d-7--7--7---7--7--2--2--2---2--2--5--5--5---5--5--x--x--x---x--x--
a-7--7--7---7--7--2--2--2---2--2--5--5--5---5--5--x--x--x---x--x--
d-7--7--7---7--7--2--2--2---2--2--5--5--5---5--5------------------

e-----------------------------------------------------------------
b-----------------------------------------------------------------
g--2-2-2-2-2-2-2-2-2-2-2-2-2--------------------------------------
d--0-0-0-0-0-0-0-0-0-0-0-0-0------3--3---3---3-----5--5---5---5---
a--0-0-0-0-0-0-0-0-0-0-0-0-0------3--3---3---3-----5--5---5---5---
d--0-0-0-0-0-0-0-0-0-0-0-0-0------3--3---3---3-----5--5---5---5---

2nd time: (2:42)
e-----------------------------------------------------------------
b-----------------------------------------------------------------
g-------------------------------------------------7--7--7---7--7--
d-7--7--7---7--7--2--2--2---2--2--5--5--5---5--5--7--7--7---7--7--
a-7--7--7---7--7--2--2--2---2--2--5--5--5---5--5--5--5--5---5--5--
d-7--7--7---7--7--2--2--2---2--2--5--5--5---5--5------------------

e------------------------------------------------------------------
b------------------------------------------------------------------
g-----------------------------------------------------  *SILENCE*
d-7--7--7---7--7--2--2--2---2--2--5--5--5---5--5-5-5- (yes-ter-day)
a-7--7--7---7--7--2--2--2---2--2--5--5--5---5--5-5-5-
d-7--7--7---7--7--2--2--2---2--2--5--5--5---5--5-5-5---------------

e-----------------------------------------------------------------
b-----------------------------------------------------------------
g-------------------------------------------------x--x--x---x--x--
d-7--7--7---7--7--2--2--2---2--2--5--5--5---5--5--x--x--x---x--x--
a-7--7--7---7--7--2--2--2---2--2--5--5--5---5--5--x--x--x---x--x--
d-7--7--7---7--7--2--2--2---2--2--5--5--5---5--5------------------

e-----------------------------------------------------------------
b-----------------------------------------------------------------
g--2-2-2-2-2-2-2-2-2-2-2-2-2--------------------------------------
d--0-0-0-0-0-0-0-0-0-0-0-0-0------3--3---3---3-----5--5---5---5---
a--0-0-0-0-0-0-0-0-0-0-0-0-0------3--3---3---3-----5--5---5---5---
d--0-0-0-0-0-0-0-0-0-0-0-0-0------3--3---3---3-----5--5---5---5---

Interlude: (2x)
(2:57)
e-----------------------------------------------------------------
b-----------------------------------------------------------------
g--2-2-2-2-2-2-2-2-2-2-2-2-2--------------------------------------
d--0-0-0-0-0-0-0-0-0-0-0-0-0------3--3---3---3-----5--5---5---5---
a--0-0-0-0-0-0-0-0-0-0-0-0-0------3--3---3---3-----5--5---5---5---
d--0-0-0-0-0-0-0-0-0-0-0-0-0------3--3---3---3-----5--5---5---5---

End: (3:05)
e-------
b-------
g--9~---
d--9~---
a--7~---
d--7~---

10.HELLO AGAIN

INTRO
E:-5-5-x-5-x-5-5-5-------------5-5-x-5-5-5-x-5-5-x-5-5-5
B:-5-5-x-5-x-5h7-7x2 and then-8-8-x-8-8-8-x-6-6-x-5-5-5
G:-7-7-x-7-x-7-7-7-------------7-7-x-7-7-7-x-7-7-x-7-7-7
D:------------------------------------------------------
A:------------------------------------------------------
D:------------------------------------------------------

The rhythm isn't perfect by a long way but its easy to work out once you know the song.

INTRO (w/bass and drums)
E:------------------------------------------------
B:------------------------------------------------
G:-9-9-x-9h11-11---------------12-12-12--10-10--5-
D:-x-x-x-x---------x2 and then-12-12-12--10-10-5-
A:-7-7-x-7h9---9---------------10-10-12---8--8-5-
D:-0-0-x-0-0---0---------------10-10-10---8--8--3-

VERSE
E:-5-5-x-5-x-5-5-5-------------5-5-x-5-5-5-x-5-5-x-5-5-5
B:-5-5-x-5-x-5h7-7x2 and then-8-8-x-8-8-8-x-6-6-x-5-5-5
G:-7-7-x-7-x-7-7-7-------------7-7-x-7-7-7-x-7-7-x-7-7-7
D:------------------------------------------------------
A:------------------------------------------------------
D:------------------------------------------------------

11.TO BE WITH YOU

Standard tuning

Intro
-0---0---------------0---------0-------0---------------------0-------|--------
-0-2---2-------3-3-2---2-------0-3-3-2---2-----------3-3-------2-2---|--------
-0-------0---0-----------0---0-0-----------0---0---------0-----------|--------
-2---------4---------------4---2-------------4---4-----------------4/|--------
-2-----------------------------2-------------------2-------2---------|--------
-0-----------------------------0-------------------------------------|--------
                                                                              
Verse
-------------------------------------------0-0--------------------------------
-------------------------------------0---0-----0-0----------------------------
-------------------------------------2-2---------2----------------------------
-5p4-5p4-5p4-5p4-5p4-5p4-5p4-5p4-----1-1---------1-5p4-5p4-5p4-5p4-5p4-5p4-5p-
---------------------------------2-2------------------------------------------
------------------------------------------------------------------------------

-----------------0-0-----------------------------------------------------0-0--
---------------0-----0---------------------------------------------0-0-3---3--
-------------0-----------------------------------------------------0-0-0---0--
-4-5p4-----5-5---------10p9-10p9-10p9-10p9-10p9-10p9-10p9-10p9-2-2-2-2-2------
-----------3-3----------------------------------------------------------------
-------5-5--------------------------------------------------------------------
                                                                              

---0-0-0-------0---------------0-0--|-----------------------------------------
-0-3-5-0-3-3-2---2-------3-3-2---2-2|-----------------------------------------
---0-0-0-----------0---0------------|-----------------------------------------
---2-4-2-------------4--------------|-----------------------------------------
---3-5-2----------------------------|-----------------------------------------
-------0----------------------------|-----------------------------------------
                                                                              
Chorus
-------5-------------------------------------------------------0-----2-2-0----
-------5-------7-----------------------------------------------1-----3-3-0----
-------5-------7------9--9--9--9--9--9--9--9--9--9--9--9-------0-----2-2-0----
-------5-------7-----10-10-10-10--9--9--9--9--9--9--9--9-------2-----4-4-2----
-------7-------9------9--9--9--9-10-10-10-10-10-10-10-10-0-0-0---2-2-----2----
-5-5-5---7-7-7---8-8--8--8--8--8--8--8--8--8--8--8--8--8-----------------0----
                                                                              

--0-0-0-0-0-0-0-0-------5-----------------------------------------------------
--0-0-0-0-0-0-0-0-------5-------7---------------------------------------------
--0-0-0-0-0-0-0-0-------5-------7------9--9--9--9--9--9--9--9--9--9--9--9-----
--2-2-2-2-2-2-2-2-------5-------7-----10-10-10-10--9--9--9--9--9--9--9--9-----
--2-2-2-2-2-2-2-2-------7-------9------9--9--9--9-10-10-10-10-10-10-10-10-----
--0-0-0-0-0-0-0-0-5-5-5---7-7-7---8-8--8--8--8--8--8--8--8--8--8--8--8--8-----
                                                                              

-------------------------0-------0---------------0-0--|-----------------------
-------------------------0-3-3-2---2-------3-3-2---2-2|-----------------------
-------------------------0-----------0---0------------|-----------------------
-8-8-8-8-7-7-7-7-7-7-7-7-2-------------4--------------|-----------------------
-5-5-5-5-5-5-5-5-5-5-5-5-2----------------------------|-----------------------
-6-6-6-6-6-6-6-6-6-6-6-6-0----------------------------|-----------------------
                                                                              
Interlude
-0---0-----------------0-0-----0---------------------1-1-0-1-0-----0----------
-0-0---0---0-0---0---0---0---0---0---0-0-----0-------3-3---3---3---1---0-1p0--
-2-------2---0-----------2-2-------2---0-------0---0-2-2---2-----2-2-2--------
-2-----------2-----2-----2-------------2-2-4-----4---0-0---0-------2----------
-0-----------2-----------0-------------2---------------------------0----------
-------------0-------------------------0--------------------------------------
                                                                              

-------0-0--------------------------------------------------------------------
---1---3-5--------------------------------------------------------------------
-2-----0-0-7/9-9-9/11-11-11-11/12-12-12-12/14-14-14-14/16-16-16-16/19-19-19---
-------2-4--------------------------------------------------------------------
-----0-3-5-5/7-7-7/-9--9--9--9/10-10-10-10/12-12-12-12/14-14-14-14/17-17-17---
------------------------------------------------------------------------------
                                                                              

-------------------------|----------------------------------------------------
-------------------------|----------------------------------------------------
-19/21-21-21-21-21-21-21\|----------------------------------------------------
-------------------------|----------------------------------------------------
-17/19-19-19-19-19-19-19\|----------------------------------------------------
-------------------------|----------------------------------------------------
                                                                              
Last Chorus
-------5-------------------------------------------------------0-----2-2------
-------5-------7-----------------------------------------------1-----3-3------
-------5-------7------9--9--9--9--9--9--9--9--9--9--9--9-------3-----2-2------
-------5-------7-----10-10-10-10--9--9--9--9--9--9--9--9-------2-----4-4------
-------7-------9------9--9--9--9-10-10-10-10-10-10-10-10-0-0-0---2-2----------
-5-5-5---7-7-7---8-8--8--8--8--8--8--8--8--8--8--8--8--8----------------------
                                                                              

-0----0-0-0-0-0-0-0-0-------5-------------------------------------------------
-0----0-0-0-0-0-0-0-0-------5-------7-----------------------------------------
-0----0-0-0-0-0-0-0-0-------5-------7------9--9--9--9--9--9--9--9--9--9--9--9-
-2----2-2-2-2-2-2-2-2-------5-------7-----10-10-10-10--9--9--9--9--9--9--9--9-
-2----2-2-2-2-2-2-2-2-------7-------9------9--9--9--9-10-10-10-10-10-10-10-10-
-0----0-0-0-0-0-0-0-0-5-5-5---7-7-7---8-8--8--8--8--8--8--8--8--8--8--8--8--8-
                                                                              

------------------------|------0-----------|----------------------------------
------------------------|3-3-2---2---------|----------------------------------
------------------------|----------0---0---|----------------------------------
-8-8-8-8-7-7-7-7-7-7-7-7|------------4-----|-6-6-6-6-5-5-5-5-5-5-5-5----------
-5-5-5-5-5-5-5-5-5-5-5-5|------------------|-3-3-3-3-3-3-3-3-3-3-3-3----------
-6-6-6-6-6-6-6-6-6-6-6-6|------------------|-4-4-4-4-4-4-4-4-4-4-4-4----------
                           do this 1st time     do this 2nd time              
Outro
-0-------0-0---------0-0---------0-0---------0-0---0-|------------------------
-0-3-3-2---2-2-3-3-2---2-2-3-3-2---2-2-3-3-2---2-2-0-|------------------------
-0-------------------------------------------------0-|------------------------
-2-------------------------------------------------2-|------------------------
-2-------------------------------------------------2-|------------------------
-0-------------------------------------------------0-|------------------------
                                                                              
12.GIVE IT BACK

Intro Part 1 (Distortion)
E |--------------------------------|------------------------------------|
B |--------------------------------|------------------------------------|
G#|--------------------------------|------------------------------------|
E |-0-12-10-0-9-10-0-4-5-0-5-7-0-3-|-0-12-10-0-9-10-0-4-5-0-5-7-0-4-5-7-|
B |--------------------------------|------------------------------------|
E |--------------------------------|------------------------------------|


E |--------------------------------|---------------------------|
B |--------------------------------|---------------------------|
G#|--------------------------------|---------------------------|
E |-0-12-10-0-9-10-0-4-5-0-5-7-0-3-|---------------------------|
B |--------------------------------|-0-2-3-0-3-5-0-2-3-0-3-5-1-|
E |--------------------------------|-0-2-3-0-3-5-0-2-3-0-3-5-1-|


   Intro Part 1 (Distortion)
E |--------------------------------|----------------------------------|
B |--------------------------------|----------------------------------|
G#|--------------------------------|----------------------------------|
E |--------------------------------|----------------------------------|
B |-0-12-10-0-9-10-0-4-5-0-5-7-0-3-|-0-12-10-0-9-10-0-4-5-0-5-7-0-4-5-7-|
E |-0-12-10-0-9-10-0-4-5-0-5-7-0-3-|-0-12-10-0-9-10-0-4-5-0-5-7-0-4-5-7-|


E |--------------------------------|---------------------------|
B |--------------------------------|---------------------------|
G#|--------------------------------|---------------------------|
E |--------------------------------|---------------------------|
B |-0-12-10-0-9-10-0-4-5-0-5-7-0-3-|-0-2-3-0-3-5-0-2-3-0-3-5-1-|
E |-0-12-10-0-9-10-0-4-5-0-5-7-0-3-|-0-2-3-0-3-5-0-2-3-0-3-5-1-|


   Verse (Distortion)
E |---------------|---------|--------------------------------------|--------------|---------|
B |---------------|---------|--------------------------------------|--------------|---------|
G#|---------------|---------|--------------------------------------|--------------|---------|
E |0-12-10-0-9-10-|--0-3-5--|-0-12-10-0-9-10-0-4-5-0-5-7-0-4-5-7-0-|-12-10-0-9-10-|--0-3-5--|
B |---------------|---------|--------------------------------------|--------------|---------|
E |---------------|---------|--------------------------------------|--------------|---------|

E |---------------------------------|----------------|---------|----------------------------|
B |---------------------------------|----------------|---------|----------------------------|
G#|---------------------------------|----------------|---------|----------------------------|
E |-0-2-3-0-3-5-0-2-3-0-3-5-0-2-3-5-|-0-12-10-0-9-10-|--0-3-5--|-0-12-10-0-9-10-0-4-0-5-7-0-|
B |---------------------------------|----------------|---------|----------------------------|
E |---------------------------------|----------------|---------|----------------------------|

E |----------------------|---------|---------------------------|
B |----------------------|---------|---------------------------|
G#|----------------------|---------|---------------------------|
E |-4-5-7-0-12-10-0-9-10-|--0-3-5--|-0-2-3-0-3-5-0-2-3-0-3-----|
B |----------------------|---------|-----------------------5-1-|
E |----------------------|---------|-----------------------5-1-|


   Chorus (Distortion)
E |----------------------|-----------------|-------------------|
B |----------------------|-----------------|-------------------|
G#|----------------------|-----------------|-------------------|
E |-0-0-0-12-12-12-8-8-8-|-10-X-X-13-0-0-0-|-8-8-8-3-3-3-5-5-5-|
B |-0-0-0-12-12-12-8-8-8-|-10-X-X-13-0-0-0-|-8-8-8-3-3-3-3-3-3-|
E |-0-0-0-12-12-12-8-8-8-|-10-X-X-13-0-0-0-|-8-8-8-3-3-3-3-3-3-|


   Breakdown (Distortion)                                          
E |----------------------|----------------------|--------------|
B |----------------------|----------------------|--------------|
G#|----------------------|----------------------|--------------|
E |----------------------|----------------------|------------3-|
B |----------------------|----------------------|------------3-|
E |-0-1-1-0-1--0-1-1-0-1-|-0-1-1-0-1--0-1-1-0-1-|-0-1-1-0-1--3-|
pm  . . . . .  . . . . .   . . . . .  . . . . .   . . . . . 

E |----------------------|---------------------|--------------|
B |----------------------|---------------------|--------------|
G#|----------------------|---------------------|--------------|
E |---------1----------1-|---------1---------1-|----------1-3-|
B |---------1----------1-|---------1---------1-|----------1-3-|
E |-0-1-1-0-1--0-1-1-0-1-|-0-1-1-0-1-0-1-1-0-1-|-0-1-1-0--1-3-|
pm  . . . .    . . . .     . . . .   . . . .     . . . .

E |----------------------|---------------------|--------------|
B |----------------------|---------------------|--------------|
G#|----------------------|---------------------|--------------|
E |---------1----------1-|---------1---------1-|------------3-|
B |-0-1-1-0-1--0-1-1-0-1-|-0-1-1-0-1-0-1-1-0-1-|-0-1-1-0-1--3-|
E |-0-1-1-0-1--0-1-1-0-1-|-0-1-1-0-1-0-1-1-0-1-|-0-1-1-0-1--3-|
pm  . . . .    . . . .     . . . .   . . . .     . . . . . 

E |----------------------|---------------------|--------------|
B |----------------------|---------------------|--------------|
G#|----------------------|---------------------|--------------|
E |---------1----------1-|---------1-----------|------------3-|
B |-0-1-1-0-1--0-1-1-0-1-|-0-1-1-0-1-0-1-1-0-1-|-0-1-1-0-1--3-|
E |-0-1-1-0-1--0-1-1-0-1-|-0-1-1-0-1-0-1-1-0-1-|-0-1-1-0-1--3-|
Comments