Hoobastank - Hello Again Chords & Tabs

 

Hello Again Chords & Tabs

Hoobastank Chords & Tabs

Version: 1 Type: Bass Tab 0 ratings
1 star 2 stars 3 stars 4 stars 5 stars
comments

Hello Again Bass Tab

   
Band- Hoobastank
Song- Hello Again

Tuning: Drop D - D A D G

Intro:
G|-------------------------------------------------------|
D|-----0----0------0-----3-----3------2-----2------------|
A|-------------------------------------------------------|
D|--0----00----00----33----33----22----22----------------|
[ Tab from: http://www.guitartabs.cc/tabs/h/hoobastank/hello_again_btab.html ]
Verse: (x2)                    (x2)
G|---------------------------|---------------------------|
D|---------12-----1212-------|------15-------1515--------|
A|---------------------------|---------------------------|
D|----12------12------12-----|--15--------15---------15--|

  (x2)
G|-------------------------------------------------------|
D|------14--------1414-----------------------------------|
A|-------------------------------------------------------|
D|--14------14-----------14------------------------------|

Chorus:
G|-------------------------------------------------------|
D|------0----00----------3----33----------2------22------|
A|-------------------------------------------------------|
D|---0----0------0----3-----3-----3----2------2-------2--|
Comments