Hoobastank - Give It Back Chords & Tabs

 

Give It Back Chords & Tabs

Hoobastank Chords & Tabs

Version: 1 Type: Tab 0 ratings
1 star 2 stars 3 stars 4 stars 5 stars
comments

Give It Back Tab

Give it back-intro
Hoobastank
tuned in drop d 




	1                                                      2                                      
[ Tab from: http://www.guitartabs.cc/tabs/h/hoobastank/give_it_back_tab.html ]
----------------------------------------|------------------------------------------------|------------------------
----------------------------------------|------------------------------------------------|------------------------
----------------------------------------|------------------------------------------------|-------repeat-1------
----------------------------------------|------------------------------------------------|------------------------
----------------------------------------|------------------------------------------------|------------------------
0-12-10-0-9-10-0-4-5-0-5-7-0-3|--0-12-10-0-9-10-0-4-5-0-5-7-0-4-5-7|------------------------
     
-----------------------------------------------------------------------------------------------------------------
-----------------------------------------------------------------------------------------------------------------
-----------------------------------------------------------------------------------------------------------------
0-2-3-0-3-5-0-2-3-0-3-5----1-----------------------------------------------------------------------------
0-2-3-0-3-5-0-2-3-0-3-5----1-----------------------------------------------------------------------------
0-2-3-0-3-5-0-2-3-0-3-5----1-----------------------------------------------------------------------------
Comments