Hoobastank - Crawling In The Dark Chords & Tabs

 

Crawling In The Dark Chords & Tabs

Hoobastank Chords & Tabs

Version: 9 Type: Tab 0 ratings
1 star 2 stars 3 stars 4 stars 5 stars
comments

Crawling In The Dark Tab

   
Open E Tuning:
(low to hign) E-B-E-G#-B-E

Intro:
------------------------------------------------------------
------------------------------------------------------------
------------------------------------------------------------
------------9---10--9------------7--------------------------
------7-7-7---7----7-10-7-9-0-5-5---------------------------
------------------------------------------------------------

------------------------------------------------------------
------------------------------------------------------------
------------------------------------------------------------
------------5---4---7---5---4-------------------------------
-------3-3-3--3---3---5---5---5-5-5-5-----------------------
------------------------------------------------------------

------------------------------------------------------------
------------------------------------------------------------
------------------------------------------------------------
-----------------5-5-5-5-----------------12-----------------
-------0-2-2-0-2-3-3-2-2-5-5-0------0-0--10-----------------
-------0-2-2-0-2---------5-5-0------0-0--10-----------------

------------------------------------------------------------
------------------------------------------------------------
------------------------------------------------------------
-------12-12-12-12-12---------------------------------------
-------10-10-10-10-10-0-5-5-5-5-0-0-0-0---------------------
-------10-10-10-10-10-0-5-5-5-5-0-0-0-0---------------------

Verse one:
------------------------------------------------------------
------------------------------------------------------------
------------------------------------------------------------
----------9---10---9----------------7-----------------------
----7-7-7---7---7----7-10-7-9-0-5-5-------------------------
------------------------------------------------------------

------------------------------------------------------------
------------------------------------------------------------
------------------------------------------------------------
----------9---10---9----------------7-----------------------
----7-7-7---7---7----7-10-7-9-0-5-5-------------------------
------------------------------------------------------------

------------------------------------------------------------
------------------------------------------------------------
------------------------------------------------------------
------------5---4---7---5---4-------------------------------
-------3-3-3--3---3---5---5---5-5-5-5-----------------------
------------------------------------------------------------

------------------------------------------------------------
------------------------------------------------------------
------------------------------------------------------------
------------5---4---7---5---4-------------------------------
-------3-3-3--3---3---5---5---5-5-5-5-----------------------
------------------------------------------------------------

Chorus:
------------------------------------------------------------
------------------------------------------------------------
------------------------------------------------------------
-----------------5-5-5-5------------------------------------
-------0-2-2-0-2-3-3-2-2-5-5-0------0-----------------------
-------0-2-2-0-2---------5-5-0------0-----------------------

------------------------------------------------------------
------------------------------------------------------------
------------------------------------------------------------
-----------------5-5-5-5------------------------------------
-------0-2-2-0-2-3-3-2-2-5-5-0------10----------------------
-------0-2-2-0-2---------5-5-0------10----------------------

-------------------------------0------0--0------------------
-------------------------------0------0--0------------------
-------------------------------0------0--0------------------
--------12---12-12-12-12-------0------0--0------------------ X2
--10-10-10---10-10-10-10-0-0-0-0------0--0--0--0------------
--10-10-10---10-10-10-10-0-0-0-0------0--0--0--0------------

------------------------------------------------------------
------------------------------------------------------------
------------------------------------------------------------
------------------5-5-5-5-----------------------------------
--------0-2-2-0-2-3-3-2-2-5-5-0------0----------------------
--------0-2-2-0-2---------5-5-0------0----------------------

------------------------------------------------------------
------------------------------------------------------------
------------------------------------------------------------
-----------------5-5-5-5------------------------------------
-------0-2-2-0-2-3-3-2-2-5-5-0------10----------------------
-------0-2-2-0-2---------5-5-0------10----------------------

-------------------------------0------0--0------------------
-------------------------------0------0--0------------------
-------------------------------0------0--0------------------
--------12---12-12-12-12-------0------0--0------------------  X2
--10-10-10---10-10-10-10-0-0-0-0------0--0--0--0------------
--10-10-10---10-10-10-10-0-0-0-0------0--0--0--0------------


Verse two:
------------------------------------------------------------
------------------------------------------------------------
------------------------------------------------------------
----------9---10---9----------------7-----------------------
----7-7-7---7---7----7-10-7-9-0-5-5-------------------------
------------------------------------------------------------

------------------------------------------------------------
------------------------------------------------------------
------------------------------------------------------------
----------9---10---9----------------7-----------------------
----7-7-7---7---7----7-10-7-9-0-5-5-------------------------
------------------------------------------------------------
[ Tab from: http://www.guitartabs.cc/tabs/h/hoobastank/crawling_in_the_dark_tab_ver_9.html ]
------------------------------------------------------------
------------------------------------------------------------
------------------------------------------------------------
------------5---4---7---5---4-------------------------------
-------3-3-3--3---3---5---5---5-5-5-5-----------------------
------------------------------------------------------------

------------------------------------------------------------
------------------------------------------------------------
------------------------------------------------------------
------------5---4---7---5---4-------------------------------
-------3-3-3--3---3---5---5---5-5-5-5-----------------------
------------------------------------------------------------

PLAY CHORUS

Bridge:
------------------------------------------------------------
------------------------------------------------------------
------------------------------------------------------------
----12-12-12-12--12-12-12-12-12-12-12-12-12-12-12-12--------
----10-10-10-10--10-10-10-10-10-10-10-10-10-10-10-10--------
----10-10-10-10--10-10-10-10-10-10-10-10-10-10-10-10--------

------------------------------------------------------------
------------------------------------------------------------
------------------------------------------------------------
----4-4-4-4--4-4-4------4-4-4-4-4-4-4-4---------------------
----2-2-2-2--2-2-2------2-2-2-2-2-2-2-2---------------------
----2-2-2-2--2-2-2------2-2-2-2-2-2-2-2---------------------

------------------------------------------------------------
------------------------------------------------------------
------------------------------------------------------------
---12-12-12-12--12-12-12-12-12-12-12-12-12-12-12-12---------
---10-10-10-10--10-10-10-10-10-10-10-10-10-10-10-10---------
---10-10-10-10--10-10-10-10-10-10-10-10-10-10-10-10---------

------------------------------------------------------------
------------------------------------------------------------
------------------------------------------------------------
---7-7-7-7-7-7-7-5----5-5-5-5-5-5-5-5-----------------------
---5-5-5-5-5-5-5-5----5-5-5-5-5-5-5-5-----------------------
---4-4-4-4-4-4-4-5----5-5-5-5-5-5-5-5-----------------------

------------------------------------------------------------
------------------------------------------------------------
------------------------------------------------------------
----12-12-12-12--12-12-12-12-12-12-12-12-12-12-12-12--------
----10-10-10-10--10-10-10-10-10-10-10-10-10-10-10-10--------
----10-10-10-10--10-10-10-10-10-10-10-10-10-10-10-10--------

------------------------------------------------------------
------------------------------------------------------------
------------------------------------------------------------
----4-4-4-4--4-4-4------4-4-4-4-4-4-4-4---------------------
----2-2-2-2--2-2-2------2-2-2-2-2-2-2-2---------------------
----2-2-2-2--2-2-2------2-2-2-2-2-2-2-2---------------------

------------------------------------------------------------
------------------------------------------------------------
------------------------------------------------------------
----12-12-12-12--12-12-12-12-12-12-12-12-12-12-12-12--------
----10-10-10-10--10-10-10-10-10-10-10-10-10-10-10-10--------
----10-10-10-10--10-10-10-10-10-10-10-10-10-10-10-10--------

------------------------------------------------------------
------------------------------------------------------------
------------------------------------------------------------
----12-12-12-12-14-14-14-16-16-16-16-16-16-16-16------------
----X--X--X--X--X--X--X--X--X--X--X--X--X--X--X-------------
----12-12-12-12-14-14-14-16-16-16-16-16-16-16-16------------

------------------------------------------------------------
------------------------------------------------------------
------------------------------------------------------------
----12-12-12-12--12-12-12-12-12-12-12-12-12-12-12-12--------
----10-10-10-10--10-10-10-10-10-10-10-10-10-10-10-10--------
----10-10-10-10--10-10-10-10-10-10-10-10-10-10-10-10--------

------------------------0-0-0-0-0-0-0-0---------------------
------------------------0-0-0-0-0-0-0-0---------------------
------------------------0-0-0-0-0-0-0-0---------------------
------------------------0-0-0-0-0-0-0-0---------------------
------------------------0-0-0-0-0-0-0-0---------------------
--------0-0-0-0-0-0-0-0-0-0-0-0-0-0-0-0---------------------


PLAY CHORUS


Outro:
------------------------------------------------------------
------------------------------------------------------------
------------------------------------------------------------
-----------------5-5-5-5------------------------------------
-------0-2-2-0-2-3-3-2-2-5-5-0------0---0-0-0---------------
-------0-2-2-0-2---------5-5-0------0---0-0-0---------------

------------------------------------------------------------
------------------------------------------------------------
------------------------------------------------------------
-----------------5-5-5-5------------------------------------
-------0-2-2-0-2-3-3-2-2-5-5-0------------------------------
-------0-2-2-0-2---------5-5-0------------------------------

Lyrics:

VERSE 1:
I will dedicate
and sacrafice my every 
thing for just a second's worth.
I found my story's ending.
And I wish I cound know 
of the directions that i take
and all the choices that i make 
won't end up all for nothing.

CHORUS:
Show me what it's for
Make me understand it.
I've been crawling in the dark,
looking for the answer.
Is theresomething more
than what I've been handed?
I've been crawling in the dark,
looking for the answer.

VERSE 2:
Help me carry on
and show me it's O.K. to 
use my heart and not my eyes
and navigate the darkness.
Will the ending be
ever coming suddenly?
Will I ever get to see
the ending to my story?

CHORUS

BRIDGE:
How much further do I have to go?
And how much longer till I finally know?
'Cause i'm looking and I just can't see what's in front of me.
IN FRONT OF ME!
Comments