Hoobastank - Crawling In The Dark Chords & Tabs

 

Crawling In The Dark Chords & Tabs

Hoobastank Chords & Tabs

Version: 5 Type: Tab 0 ratings
1 star 2 stars 3 stars 4 stars 5 stars
comments

Crawling In The Dark Tab

   
#----------------------------------PLEASE NOTE--------------------------------#
#This file is the author's own work and represents their interpretation of the#
#song. You may only use this file for private study, scholarship, or research.#
#-----------------------------------------------------------------------------#
#-- File created with Instab - http://www.pconline.com/~smcarey/instab.html --#
#-----------------------------------------------------------------------------#

Author/Artist: Hoobastank
Title: Crawling In The Dark
Album: Hoobastank
Transcribed by: huskers420
Email: fto2345821@aol.com

Open E Tuning: E B E G# B E

-|----------------------------------------------------------------------------
-|----------------------------------------------------------------------------
-|----------------------------------------------------------------------------
-|-------9---10---9----------------7-------5---4---7---5---4------------------
-|-7-7-7---7----7---7-10-7-9-0-5-5---3-3-3---3---3---5---5---5-5-5-5----------
-|----------------------------------------------------------------------------
 Intro and verse with slight dist, and delay                                  

-|----------------------------------------------------------------------------
-|----------------------------------------------------------------------------
-|----------------------------------------------------------------------------
-|-----------5-5-5-5-----------12-12-12-12-12-12-12---------------------------
-|-0h2-2-0-2-3-3-2-2-5-5-0-0-0-10-10-10-10-10-10-10-0-5-5-5-5-0-0-0-0---------
-|-0h2-2-0-2---------5-5-0-0-0-10-10-10-10-10-10-10-0-5-5-5-5-0-0-0-0---------
 chorus with heavy dist.                                                      

-|-----------------------0-0-0------------------------------0-0-0-------------
-|-----------------------0-0-0------------------------------0-0-0-------------
-|-----------------------0-0-0------------------------------0-0-0-------------
-|----12-12-12-12-12-----0-0-0-----------12-12-12-12-12-----0-0-0-------------
-|-10-10-10-10-10-10-0-0-0-0-0-0-0-10-10-10-10-10-10-10-0-0-0-0-0-0-0---------
-|-10-10-10-10-10-10-0-0-0-0-0-0-0-10-10-10-10-10-10-10-0-0-0-0-0-0-0---------
                                                                              

-|-----------------------------------|----------------------------------------
-|-----------------------------------|----------------------------------------
-|-----------------------------------|----------------------------------------
-|-----------------------------------|----------------------------------------
-|-0-2---0-2---0-2---0-2---0-2--3-3b-|-0-2-2-2-2-2-0-2-2-2-2-2-0-2-2-2-0-2-2--
-|-0-2---0-2---0-2---0-2---0-2--3-3b-|-0-2-2-2-2-2-0-2-2-2-2-2-0-2-2-2-0-2-2--
 breakdown                         pm-   ---------    -------     ----   ---- 
[ Tab from: http://www.guitartabs.cc/tabs/h/hoobastank/crawling_in_the_dark_tab_ver_5.html ]
-|-----------------------|----------------------------------------------------
-|-----------------------|----------------------------------------------------
-|-----------------------|----------------------------------------------------
-|-----------------------|----------------------------------------------------
-|-2-2-2-0-2-2-2-3-3-3-3-|----------------------------------------------------
-|-2-2-2-0-2-2-2-3-3-3-3-|-5-5-5-4-4-4-3-3-3-/-1/5---2/2-2/2-2/2-3-3-3-4-4-4--
   -----     ---    ----  played behind, all nat. harmonics ----------------  

-|---------------|------------------------------------------------------------
-|---------------|------------------------------------------------------------
-|---------------|------------------------------------------------------------
-|---------------|-12-12-12-12-12-12-12-12-12-12-12-12-12-12-12-12-4-4-4-4-4--
-|---------------|-10-10-10-10-10-10-10-10-10-10-10-10-10-10-10-10-0-0-0-0-0--
-|-4-4-5-5-5-5-5-|-10-10-10-10-10-10-10-10-10-10-10-10-10-10-10-10-0-0-0-0-0--
   ------------   fast tempoed bridge part                                    

-|----------------------------------------------------------------------------
-|----------------------------------------------------------------------------
-|----------------------------------------------------------------------------
-|-4-4-4-4-4-4-4-4-4-12-12-12-12-12-12-12-12-12-12-12-12-12-12-12-12-7-7-7-7--
-|-0-2-2-2-2-2-2-2-2-10-10-10-10-10-10-10-10-10-10-10-10-10-10-10-10-5-5-5-5--
-|-0-2-2-2-2-2-2-2-2-10-10-10-10-10-10-10-10-10-10-10-10-10-10-10-10-4-4-4-4--
                                                                              

-|-----------------------|----------------------------------------------------
-|-----------------------|----------------------------------------------------
-|-----------------------|----------------------------------------------------
-|-7-7-5-5-5-5-5-5-5-5-5-|-12-12-12-12-12-12-12-12-12-12-12-12-12-12-12-12----
-|-5-5-5-5-5-5-5-5-5-5-5-|-10-10-10-10-10-10-10-10-10-10-10-10-10-10-10-10----
-|-4-4-5-5-5-5-5-5-5-5-5-|-10-10-10-10-10-10-10-10-10-10-10-10-10-10-10-10----
                       repeat first part end with this                        

-|-------------------------------------------------|--------------------------
-|-------------------------------------------------|--------------------------
-|-------------------------------------------------|--------------------------
-|-12-12-12-12-14-14-14-14-16-16-16-16-16-16-16-16-|--------------------------
-|-x--x--x--x--x--x--x--x--x--x--x--x--x--x--x--x--|--------------------------
-|-12-12-12-12-14-14-14-14-16-16-16-16-16-16-16-16-|--------------------------
                                   play intro then chorus again then end on   

-|----------------------------------------------------------------------------
-|----------------------------------------------------------------------------
-|----------------------------------------------------------------------------
-|-----------5-5-5-5----------------------------------------------------------
-|-0h2-2-0-2-3-3-2-2-5-5-0----------------------------------------------------
-|-0h2-2-0-2---------5-5-0----------------------------------------------------
 this                                                                         

Comments