Hoobastank - Crawling In The Dark Chords & Tabs

 

Crawling In The Dark Chords & Tabs

Hoobastank Chords & Tabs

Version: 3 Type: Tab 0 ratings
1 star 2 stars 3 stars 4 stars 5 stars
comments

Crawling In The Dark Tab

   
Artist: Hoobastank
Song: Crawling In The Dark
Tabbed by: AC

kickass new band outta Cali
listen to the whole album here: http://www.hoobustank.com/ 


Drop D

intro		3x					1x
|---------------------------------------|----------------------------------|
|---------------------------------------|----------------------------------|
|---------------------------------------|----------------------------------|
|-------11--12--11------------------9---|--------7---6---9---7----6--------|
|-9-9-9--------------12---9-7-7-7-------|5-5-5------------------------7----|
|---------------------------------------|----------------------------------|
		3x
|---------------------------------------|----------------------------------|
|---------------------------------------|----------------------------------|
|---------------7-7-6---2---------------|----------------2-2-2-------------|
|-2/4---4-4-4---7-7-6---2---2-2-2-2-----|--0-0-0-0-0-0---2-2-2---2-2-2-----|
|-2/4---4-4-4---5-5-4---0---2-2-2-2-----|--0-0-0-0-0-0---0-0-0---2-2-2-----|
|-2/4---4-4-4---------------2-2-2-2-----|--0-0-0-0-0-0-----------2-2-2-----|



verse		2x					2x
|---------------------------------------|----------------------------------|
|---------------------------------------|----------------------------------|
|---------------------------------------|----------------------------------|
|-------11--12--11------------------9---|--------7---6---9---7----6--------|
|-9-9-9--------------12---9-7-7-7-------|5-5-5------------------------7----|
|---------------------------------------|----------------------------------|


chorus		2x					4x
|---------------------------------------|----------------------------------|
|---------------------------------------|----------------------------------|
|---------------7-7-6---2---------------|----------------------------------| repeat
|-2/4---4-4-4---7-7-6---2---2-2-2-2-----|--0-0-0-0-0-0------2-2-2-2-2-2----|
|-2/4---4-4-4---5-5-4---0---2-2-2-2-----|--0-0-0-0-0-0------2-2-2-2-2-2----|
|-2/4---4-4-4---------------2-2-2-2-----|--0-0-0-0-0-0------2-2-2-2-2-2----|


bridge		3x
|---------------------------------------|
|---------------------------------------|
|---------------------------------------|
|---2-4---2-4------2-4---2-4---2-4---5--|
|---2-4---2-4------2-4---2-4---2-4---5--|
|---2-4---2-4------2-4---2-4---2-4---5--|
[ Tab from: http://www.guitartabs.cc/tabs/h/hoobastank/crawling_in_the_dark_tab_ver_3.html ]
|---------------------------------------|--------------------------------------|
|---------------------------------------|--------------------------------------|
|---------------------------------------|----------------------------2---2-2-2-|
|-0-0-0-0-0-0-0-0---2-2-2-2/4---4-4-4---|--0-0-0-0-0-0-0-0---2-2-2-2-2---2-2-2-|
|-0-0-0-0-0-0-0-0---2-2-2-2/4---4-4-4---|--0-0-0-0-0-0-0-0---2-2-2-2-0---0-0-0-|
|-0-0-0-0-0-0-0-0---2-2-2-2/4---4-4-4---|--0-0-0-0-0-0-0-0---2-2-2-2-----------|

|---------------------------------------|----------------------------------|
|---------------------------------------|----------------------------------|
|---------------------------------------|----------------------------------|
|-0-0-0-0-0-0-0-0---2-2-2-2/4---4-4-4---|--0-0-0-0-0-0-0-0-0-0-0-0-0-0-0-0-|
|-0-0-0-0-0-0-0-0---2-2-2-2/4---4-4-4---|--0-0-0-0-0-0-0-0-0-0-0-0-0-0-0-0-|
|-0-0-0-0-0-0-0-0---2-2-2-2/4---4-4-4---|--0-0-0-0-0-0-0-0-0-0-0-0-0-0-0-0-|

  |---------------------------------------|
  |---------------------------------------|
  |---9-9-9---11-11-11---13-13-13---------|
  |---9-9-9---11-11-11---13-13-13---------|
  |---7-7-7---9--9--9----11-11-11---------|
  |---------------------------------------|

verse		2x
  |---------------------------------------|
  |---------------------------------------|
  |---------------------------------------|
  |-------11--12--11------------------9---|
  |-9-9-9--------------12---9-7-7-7-------|
  |---------------------------------------|

chorus
outro
  |---------------------------------------|
  |---------------------------------------|
  |---------------7-7-6---2---------------|
  |-2/4---4-4-4---7-7-6---2---2-2-2-2-----|
  |-2/4---4-4-4---5-5-4---0---2-2-2-2-----|
  |-2/4---4-4-4---------------2-2-2-2-----|

i will dedicate
and sacrifice my every
thing for just a seconds worth
of how my story's ending
and i wish i could know
if the directions that i take
and all the choices that i make
won't end up all for nothing.

	show me what it's for
	make me understand it
	i've been crawling in the dark
	looking for the answer
	is there something more
	than what i've been handed?
	i've been crawling in the dark
	looking for the answer.

help me carry on
assure me it's ok to
use my heart and not my eyes
to navigate the darkness
will the ending be
ever coming suddenly?
will i ever get to see
the ending to my story?

repeat chorus

	bridge:
	so when and how will i know?.......
	how much further do i have to go?
	how much longer till i finally know?
	cuz im looking and i just cant see what's in front of me (in front of me)

repeat chorus


http://www.kdge.com/playlist.html
Comments