Hoobastank - Crawling In The Dark Chords & Tabs

 

Crawling In The Dark Chords & Tabs

Hoobastank Chords & Tabs

Version: 13 Type: Tab 0 ratings
1 star 2 stars 3 stars 4 stars 5 stars
comments

Crawling In The Dark Tab

   
Artist: Hoobastank
Song: Crawling in the Dark
Album: Hoobastank
Tabber: CrayzeMF

Tuning: E B E G# B E

Intro #1: x3

E |---------------------------------------------------------------------
B |---------------------------------------------------------------------
G#|---------------------------------------------------------------------
E |---------------9-------10-------9--------------------------------7---
B |---7---7---7-------7--------7-------7---10---7---9---0---5---5-------
E |---------------------------------------------------------------------

Intro #2: x1

E |---------------------------------------------------------------------
B |---------------------------------------------------------------------
G#|---------------------------------------------------------------------
E |---------------5-------4-------7-------5-----4-----------------------
B |---3---3---3-------3-------3-------5------5------5---5---5---5-------
E |---------------------------------------------------------------------

Chorus: x3

E |---------------------------------------------------------------------
B |---------------------------------------------------------------------
G#|---------------------------------------------------------------------
E |-----------------------5--5--5--5------------------------------------
B |--12\----0h2--2--0--2--3--3--2--2--5--5--0-------0-------------------
E |--12\----0h2--2--0--2--------------5--5--0-------0-------------------

Chorus #2: x1

E |---------------------------------------------------------------------
B |---------------------------------------------------------------------
G#|---------------------------------------------------------------------
E |--12--12--12--12--12--12---------------------------------------------
B |--10--10--10--10--10--10--0--5--5--5--5--0--0--0--0------------------
E |--10--10--10--10--10--10--0--5--5--5--5--0--0--0--0------------------

Verse: repeat all x2

E |---------------------------------------------------------------------
B |---------------------------------------------------------------------
G#|---------------------------------------------------------------------
E |---------------9-------10-------9--------------------------------7---
B |---7---7---7-------7--------7-------7---10---7---9---0---5---5-------
E |---------------------------------------------------------------------

E |---------------------------------------------------------------------
B |---------------------------------------------------------------------
G#|---------------------------------------------------------------------
E |---------------9-------10-------9--------------------------------7---
B |---7---7---7-------7--------7-------7---10---7---9---0---5---5-------
E |---------------------------------------------------------------------

E |---------------------------------------------------------------------
B |---------------------------------------------------------------------
G#|---------------------------------------------------------------------
E |---------------5-------4-------7-------5-----4-----------------------
B |---3---3---3-------3-------3-------5------5------5---5---5---5-------
E |---------------------------------------------------------------------


E |---------------------------------------------------------------------
B |---------------------------------------------------------------------
G#|---------------------------------------------------------------------
E |---------------5-------4-------7-------5-----4-----------------------
B |---3---3---3-------3-------3-------5------5------5---5---5---5-------
E |---------------------------------------------------------------------

Chorus: x2

E |------------------------------------------------------------------
B |------------------------------------------------------------------
G#|------------------------------------------------------------------
E |--------------------5--5--5--5------------------------------------
B |------0h2--2--0--2--3--3--2--2--5--5--0-------0-------------------
E |------0h2--2--0--2--------------5--5--0-------0-------------------

E |------------------------------------------------------------------
B |------------------------------------------------------------------
G#|------------------------------------------------------------------
E |-------------------5--5--5--5-------------------------------------
B |-----0h2--2--0--2--3--3--2--2--5--5--0-------0-----------------10-
E |-----0h2--2--0--2--------------5--5--0-------0-----------------10-

E |------------------------------------0-----0--0--------------------
B |------------------------------------0-----0--0--------------------
G#|------------------------------------0-----0--0--------------------
E |---------12---12--12--12--12--------0-----0--0--------------------
B |-----10--10---10--10--10--10--0--0--0-----0--0---0--0-------------
E |-----10--10---10--10--10--10--0--0--0-----0--0---0--0-------------

E |------------------------------------0-----0--0--------------------
B |------------------------------------0-----0--0--------------------
G#|------------------------------------0-----0--0--------------------
E |---------12---12--12--12--12--------0-----0--0--------------------
B |-----10--10---10--10--10--10--0--0--0-----0--0---0--0-------------
E |-----10--10---10--10--10--10--0--0--0-----0--0---0--0-------------

Verse: repeat all x2 again

E |---------------------------------------------------------------------
B |---------------------------------------------------------------------
G#|---------------------------------------------------------------------
E |---------------9-------10-------9--------------------------------7---
B |---7---7---7-------7--------7-------7---10---7---9---0---5---5-------
E |---------------------------------------------------------------------

E |---------------------------------------------------------------------
B |---------------------------------------------------------------------
G#|---------------------------------------------------------------------
E |---------------9-------10-------9--------------------------------7---
B |---7---7---7-------7--------7-------7---10---7---9---0---5---5-------
E |---------------------------------------------------------------------

E |---------------------------------------------------------------------
B |---------------------------------------------------------------------
G#|---------------------------------------------------------------------
E |---------------5-------4-------7-------5-----4-----------------------
B |---3---3---3-------3-------3-------5------5------5---5---5---5-------
E |---------------------------------------------------------------------


E |---------------------------------------------------------------------
B |---------------------------------------------------------------------
G#|---------------------------------------------------------------------
E |---------------5-------4-------7-------5-----4-----------------------
B |---3---3---3-------3-------3-------5------5------5---5---5---5-------
E |---------------------------------------------------------------------

Chorus: x2 again

E |------------------------------------------------------------------
B |------------------------------------------------------------------
G#|------------------------------------------------------------------
E |--------------------5--5--5--5------------------------------------
B |------0h2--2--0--2--3--3--2--2--5--5--0-------0-------------------
E |------0h2--2--0--2--------------5--5--0-------0-------------------

E |------------------------------------------------------------------
B |------------------------------------------------------------------
G#|------------------------------------------------------------------
E |-------------------5--5--5--5-------------------------------------
B |-----0h2--2--0--2--3--3--2--2--5--5--0-------0-----------------10-
E |-----0h2--2--0--2--------------5--5--0-------0-----------------10-

E |------------------------------------0-----0--0--------------------
B |------------------------------------0-----0--0--------------------
G#|------------------------------------0-----0--0--------------------
E |---------12---12--12--12--12--------0-----0--0--------------------
B |-----10--10---10--10--10--10--0--0--0-----0--0---0--0-------------
E |-----10--10---10--10--10--10--0--0--0-----0--0---0--0-------------
[ Tab from: http://www.guitartabs.cc/tabs/h/hoobastank/crawling_in_the_dark_tab_ver_13.html ]
E |------------------------------------0-----0--0--------------------
B |------------------------------------0-----0--0--------------------
G#|------------------------------------0-----0--0--------------------
E |---------12---12--12--12--12--------0-----0--0--------------------
B |-----10--10---10--10--10--10--0--0--0-----0--0---0--0-------------
E |-----10--10---10--10--10--10--0--0--0-----0--0---0--0-------------

Interlude: x4

E |-----------------------------------------------------------------
B |-----------------------------------------------------------------
G#|-----------------------------------------------------------------
E |-----------------------------------------------------------------
B |---0--2----0--2----0--2----0--2----0--2----3---3-----------------
E |---0--2----0--2----0--2----0--2----0--2----3---3-----------------

Bridge:

E |------------------------------------------------------------------
B |------------------------------------------------------------------
G#|------------------------------------------------------------------
E |---12--12--12--12--12--12--12--12--12--12--12--12--12--12--12--12-
B |---10--10--10--10--10--10--10--10--10--10--10--10--10--10--10--10-
E |---10--10--10--10--10--10--10--10--10--10--10--10--10--10--10--10-

E |------------------------------------------------------------------
B |------------------------------------------------------------------
G#|------------------------------------------------------------------
E |---4--4--4--4---4--4--4---4--4--4--4--4--4--4--4------------------
B |---0--0--0--0---0--0--2---2--2--2--2--2--2--2--2------------------
E |---0--0--0--0---0--0--2---2--2--2--2--2--2--2--2------------------

E |------------------------------------------------------------------
B |------------------------------------------------------------------
G#|------------------------------------------------------------------
E |---12--12--12--12--12--12--12--12--12--12--12--12--12--12--12--12-
B |---10--10--10--10--10--10--10--10--10--10--10--10--10--10--10--10-
E |---10--10--10--10--10--10--10--10--10--10--10--10--10--10--10--10-

E |------------------------------------------------------------------
B |------------------------------------------------------------------
G#|------------------------------------------------------------------
E |---7--7--7--7--7--7--5---5--5--5--5--5--5--5--5-------------------
B |---5--5--5--5--5--5--5---5--5--5--5--5--5--5--5-------------------
E |---4--4--4--4--4--4--5---5--5--5--5--5--5--5--5-------------------

E |------------------------------------------------------------------
B |------------------------------------------------------------------
G#|------------------------------------------------------------------
E |---12--12--12--12--12--12--12--12--12--12--12--12--12--12--12--12-
B |---10--10--10--10--10--10--10--10--10--10--10--10--10--10--10--10-
E |---10--10--10--10--10--10--10--10--10--10--10--10--10--10--10--10-

E |------------------------------------------------------------------
B |------------------------------------------------------------------
G#|------------------------------------------------------------------
E |---4--4--4--4---4--4--4---4--4--4--4--4--4--4--4------------------
B |---0--0--0--0---0--0--2---2--2--2--2--2--2--2--2------------------
E |---0--0--0--0---0--0--2---2--2--2--2--2--2--2--2------------------

E |------------------------------------------------------------------
B |------------------------------------------------------------------
G#|------------------------------------------------------------------
E |---12--12--12--12--12--12--12--12--12--12--12--12--12--12--12--12-
B |---10--10--10--10--10--10--10--10--10--10--10--10--10--10--10--10-
E |---10--10--10--10--10--10--10--10--10--10--10--10--10--10--10--10-

E |------------------------------------------------------------------
B |------------------------------------------------------------------
G#|------------------------------------------------------------------
E |---12--12--12--12--14--14--14--16--16--16--16--16--16--16---------
B |------------------------------------------------------------------
E |---12--12--12--12--14--14--14--16--16--16--16--16--16--16---------

E |------------------------------------------------------------------
B |------------------------------------------------------------------
G#|------------------------------------------------------------------
E |---12--12--12--12--12--12--12--12--12--12--12--12--12--12--12--12-
B |---10--10--10--10--10--10--10--10--10--10--10--10--10--10--10--10-
E |---10--10--10--10--10--10--10--10--10--10--10--10--10--10--10--10-

E |---------------------------0--0--0--0--0--0--0--0-------------------------
B |---------------------------0--0--0--0--0--0--0--0-------------------------
G#|---------------------------0--0--0--0--0--0--0--0-------------------------
E |---------------------------0--0--0--0--0--0--0--0-------------------------
B |---------------------------0--0--0--0--0--0--0--0-------------------------
E |---0--0--0--0--0--0--0--0--0--0--0--0--0--0--0--0-------------------------

Chorus:

E |---------------------------------------------------------------------
B |---------------------------------------------------------------------
G#|---------------------------------------------------------------------
E |---------------9-------10-------9--------------------------------7---
B |---7---7---7-------7--------7-------7---10---7---9---0---5---5-------
E |---------------------------------------------------------------------

E |---------------------------------------------------------------------
B |---------------------------------------------------------------------
G#|---------------------------------------------------------------------
E |---------------9-------10-------9--------------------------------7---
B |---7---7---7-------7--------7-------7---10---7---9---0---5---5-------
E |---------------------------------------------------------------------

E |------------------------------------0-----0--0--------------------
B |------------------------------------0-----0--0--------------------
G#|------------------------------------0-----0--0--------------------
E |---------12---12--12--12--12--------0-----0--0--------------------
B |-----10--10---10--10--10--10--0--0--0-----0--0---0--0-------------
E |-----10--10---10--10--10--10--0--0--0-----0--0---0--0-------------

E |------------------------------------0-----0--0--------------------
B |------------------------------------0-----0--0--------------------
G#|------------------------------------0-----0--0--------------------
E |---------12---12--12--12--12--------0-----0--0--------------------
B |-----10--10---10--10--10--10--0--0--0-----0--0---0--0-------------
E |-----10--10---10--10--10--10--0--0--0-----0--0---0--0-------------

E |------------------------------------------------------------------
B |------------------------------------------------------------------
G#|------------------------------------------------------------------
E |--------------------5--5--5--5------------------------------------
B |------0h2--2--0--2--3--3--2--2--5--5--0-------0-------------------
E |------0h2--2--0--2--------------5--5--0-------0-------------------

E |------------------------------------------------------------------
B |------------------------------------------------------------------
G#|------------------------------------------------------------------
E |--------------------5--5--5--5------------------------------------
B |------0h2--2--0--2--3--3--2--2--5--5--0-------0-------------------
E |------0h2--2--0--2--------------5--5--0-------0-------------------

E |------------------------------------0-----0--0--------------------
B |------------------------------------0-----0--0--------------------
G#|------------------------------------0-----0--0--------------------
E |---------12---12--12--12--12--------0-----0--0--------------------
B |-----10--10---10--10--10--10--0--0--0-----0--0---0--0-------------
E |-----10--10---10--10--10--10--0--0--0-----0--0---0--0-------------

E |------------------------------------0-----0--0--------------------
B |------------------------------------0-----0--0--------------------
G#|------------------------------------0-----0--0--------------------
E |---------12---12--12--12--12--------0-----0--0--------------------
B |-----10--10---10--10--10--10--0--0--0-----0--0---0--0-------------
E |-----10--10---10--10--10--10--0--0--0-----0--0---0--0-------------

Outro: x4

E |------------------------------------------------------------------
B |------------------------------------------------------------------
G#|------------------------------------------------------------------
E |--------------------5--5--5--5------------------------------------
B |------0h2--2--0--2--3--3--2--2--5--5--0-------0-------------------
E |------0h2--2--0--2--------------5--5--0-------0-------------------
Comments