Hoobastank - Crawling In The Dark Chords & Tabs

 

Crawling In The Dark Chords & Tabs

Hoobastank Chords & Tabs

Version: 10 Type: Tab 0 ratings
1 star 2 stars 3 stars 4 stars 5 stars
comments

Crawling In The Dark Tab

ARTIST:HOOBASTANK
SONG:CRAWLING IN THE DARK
TABBER:JAPANESE182

INTRO 1 - PALM MUTE
e|---------------------------------|
B|---------------------------------|
G|-------6---7---6---2-----------4-|
D|-4-4-4---4---4---4---4-4-2-2-2---|
A|---------------------------------|
E|---------------------------------|X3

e|---------------------------|
B|---------------------------|
G|-------2-1---4---2---1-----|
D|-0-0-0-----0---0---0---0-2-|
A|---------------------------|
E|---------------------------|

INTRO 2
e|-----------------------------|
B|-----------------------------|
G|-----------7-7-6--2----------|
D|-2/4-4-4-4-7-7-6--2-2--2-2-2-|
A|-2/4-4-4-4-5-5-4--0-2--2-2-2-|
E|-2/4-4-4-4----------2--2-2-2-|X3

e|-----------------------------------|
B|-----------------------------------|
G|-9-9-9-9-9-9-9-9-------------------|
D|-7-7-7-7-7-7-7-7--7-7-7-7--2-2-2-2-|
A|-5-5-5-5-5-5-5-5--7-7-7-7--2-2-2-2-|
E|------------------7-7-7-7--2-2-2-2-|

VERSE - PALM MUTE
e|---------------------------------|
B|---------------------------------|
G|-------6---7---6---2-----------4-|
D|-4-4-4---4---4---4---4-4-2-2-2---|
A|---------------------------------|
E|---------------------------------|X2

e|---------------------------|
B|---------------------------|
G|-------2-1---4---2---1-----|
D|-0-0-0-----0---0---0---0-2-|
A|---------------------------|
E|---------------------------|X2

CHORUS 1
e|-----------------------------|
B|-----------------------------|
G|-----------7-7-6--2----------|
D|-2/4-4-4-4-7-7-6--2-2--2-2-2-|
A|-2/4-4-4-4-5-5-4--0-2--2-2-2-|
E|-2/4-4-4-4----------2--2-2-2-|X2

e|----------------------------------|
B|----------------------------------|
G|-9-9-9-9-9-9-9-9--9-9-9-9-9-9-9-9-|
D|-7-7-7-7-7-7-7-7--9-9-9-9-9-9-9-9-|
A|-5-5-5-5-5-5-5-5--7-7-7-7-7-7-7-7-|
E|----------------------------------|X2

VERSE
CHORUS 1
[ Tab from: http://www.guitartabs.cc/tabs/h/hoobastank/crawling_in_the_dark_tab_ver_10.html ]
BRIDGE 1
e|------------------------------|
B|------------------------------|
G|------------------------------|
D|-2-4--2-4--2-4--2-4--2-4----5-|
A|-2-4--2-4--2-4--2-4--2-4----5-|
E|-2-4--2-4--2-4--2-4--2-4----5-|X3

BRIDGE 2
e|-------------------------------------------|
B|-------------------------------------------|
G|-9-9-9-9-9-9-9-9--13-13-13-13--11-11-11-11-|
D|-7-7-7-7-7-7-7-7---x--x--x--x---x--x--x--x-|
A|-5-5-5-5-5-5-5-5--11-11-11-11---9--9--9--9-|
E|-------------------------------------------|

e|-----------------------------------|
B|-----------------------------------|
G|-9-9-9-9-9-9-9-9--4-4-4-4--2-2-2-2-|
D|-7-7-7-7-7-7-7-7--x-x-x-x--x-x-x-x-|
A|-5-5-5-5-5-5-5-5--2-2-2-2--0-0-0-0-|
E|-----------------------------------|

e|-------------------------------------------|
B|-------------------------------------------|
G|-9-9-9-9-9-9-9-9--13-13-13-13--11-11-11-11-|
D|-7-7-7-7-7-7-7-7---x--x--x--x---x--x--x--x-|
A|-5-5-5-5-5-5-5-5--11-11-11-11---9--9--9--9-|
E|-------------------------------------------|

e|------------------------------------------------|
B|------------------------------------------------|
G|-9-9-9-9-9-9--9-9-9-9--11-11-11-11--13-13-13-13-|
D|-7-7-7-7-7-7--x-x-x-x---x--x--x--x---x--x--x--x-|
A|-5-5-5-5-5-5--7-7-7-7---9--9--9--9--11-11-11-11-|
E|------------------------------------------------|

CHORUS 2
e|---------------------------------|
B|---------------------------------|
G|-------6---7---6---2-----------4-|
D|-4-4-4---4---4---4---4-4-2-2-2---|
A|---------------------------------|
E|---------------------------------|(PALM MUTE)

e|----------------------------------|
B|----------------------------------|
G|-9-9-9-9-9-9-9-9--9-9-9-9-9-9-9-9-|
D|-7-7-7-7-7-7-7-7--9-9-9-9-9-9-9-9-|
A|-5-5-5-5-5-5-5-5--7-7-7-7-7-7-7-7-|
E|----------------------------------|X2

OUTRO
e|-----------------------------|
B|-----------------------------|
G|-----------7-7-6--2----------|
D|-2/4-4-4-4-7-7-6--2-2--2-2-2-|
A|-2/4-4-4-4-5-5-4--0-2--2-2-2-|
E|-2/4-4-4-4----------2--2-2-2-|X3

e|----------------------|
B|----------------------|
G|-----------7-7-6--2---|
D|-2/4-4-4-4-7-7-6--2-2-|
A|-2/4-4-4-4-5-5-4--0-2-|
E|-2/4-4-4-4----------2-|
Comments