Hoobastank - Crawling In The Dark Chords & Tabs

 

Crawling In The Dark Chords & Tabs

Hoobastank Chords & Tabs

Version: 1 Type: Bass Tab 0 ratings
1 star 2 stars 3 stars 4 stars 5 stars
comments

Crawling In The Dark Bass Tab

Song - Crawling in the dark
Artist -Hoobastank
Transcripted by - Lloyd Alganion
[ Tab from: http://www.guitartabs.cc/tabs/h/hoobastank/crawling_in_the_dark_btab.html ]
standard tuning eadg
verse
-------------------------------------------------------------------------------
--------------------------------------------------------7----------------------
----99999----7--99999----7-------55555---------7----55555----- repeat 2x.
--------------------------------------------------------------------------------
chorus
------------------------------------------------------------------
------------------------------------------------------------------
-----------5---4-----------------------------5---4------------55555555
--2-----2-----------5-------0------2----2-------------5---0--------repeat 2x]
bridge
------------------------------------------------
-------------------------------------------------
-------------------------------------------------
--0-----2-----0----2----0---2----3-------- 2x

-------------------------------------------------
--------------------------------------------------
-------------------------------------------------
0-----2------0-----2--------33333333-------2x

------------------------------------------
-------------------------------------------
------------------------------------------
--22222222--------------------------

------------------------------------
------------------------------------
-----99999--7---999999-----
------------------------------------
outro
------------------------------------
------------------------------------
----------5-4---------------------
----2---2-------5------0---------


any comments email at screwed_182@hotmail.com





Comments