Hoobastank - Crawling In The Dark Acoustic Chords & Tabs

 

Crawling In The Dark Acoustic Chords & Tabs

Hoobastank Chords & Tabs

Version: 2 Type: Tab 0 ratings
1 star 2 stars 3 stars 4 stars 5 stars
comments

Crawling In The Dark Acoustic Tab

   
Tabbed By: Twstdprcptn
e-mail: bmiller@skatepile.com

Open E tuning -

 High e stays e
 B stays B
 G up to G#
 D up to e
 A up to B
 Low e stays e

Intro

e--|---------------------------------|
B--|-------2---3---2-----------------|
G#-|-------------------1---0---------|
E--|---------------------------------|  x3
B--|-0h2-2---2---2---2---2-----0---0-|
E--|-0h2-2---2---2---2---2-----0---0-|

e--|-0---0-0-0-0---0---0-0-0---0-0---|
B--|-0---0-0-0-0---0---0-0-0---0-0---|
G#-|-6---6-6-6-5---8---8-8-8---8-8---|
E--|-5---5-5-5-4---7---7-7-7---7-7---|
B--|-3---3-3-3-2---0---0-0-5---5-5---|
E--|-0---0-0-0-0---0---0-0-0---0-0---|



Verse

e--|---------0---0-0---0-0---0-0---0---------0---0-0---0-0---0-0---0-|
B--|---------5---5-5---5-5---5-5---5---------5---5-5---5-5---5-5---5-|
G#-|---------5---5-5---5-5---5-5---5---------5---5-5---5-5---5-5---5-|
E--|---------4---4-4---4-4---4-4---4---------4---4-4---4-4---4-4---4-|
B--|-0h2-----2---2-2---2-2---2-0---0-0h2-----2---2-2---2-2---2-0---0-|
E--|-0h2-----2---2-2---2-2---2-0---0-0h2-----2---2-2---2-2---2-0---0-|

         I will deticate,                 and sacrifice my every...

e--|-0---0-0-0---0-0-0-0-0-0---0-0---0---0-0-0---0-0-0-0-0-0---0-0---|
B--|-0---0-0-0---0-0-0-0-0-0---0-0---0---0-0-0---0-0-0-0-0-0---0-0---|
G#-|-6---6-6-6---6-6-6-6-6-8---8-8---6---6-6-6---6-6-6-6-6-8---8-8---|
E--|-5---5-5-5---5-5-5-5-5-7---7-7---5---5-5-5---5-5-5-5-5-7---7-7---|
B--|-3---3-3-3---3-3-3-3-3-0---0-0---3---3-3-3---3-3-3-3-3-0---0-0---|
E--|-----------------------0---0-0-------------------------0---0-0---|

         Thing for...                  of how my story...

e--|---------0---0-0---0-0---0-0---0---------0---0-0---0-0---0-0---0-|
B--|---------5---5-5---5-5---5-5---5---------5---5-5---5-5---5-5---5-|
G#-|---------5---5-5---5-5---5-5---5---------5---5-5---5-5---5-5---5-|
E--|---------4---4-4---4-4---4-4---4---------4---4-4---4-4---4-4---4-|
B--|-0h2-----2---2-2---2-2---2-0---0-0h2-----2---2-2---2-2---2-0---0-|
E--|-0h2-----2---2-2---2-2---2-0---0-0h2-----2---2-2---2-2---2-0---0-|

         I wish I could know,             if the directions...

e--|-0---0-0-0---0-0-0-0-0-0---0-0---0---0-0-0---0-0-0-0-0-0---0-0---|
B--|-0---0-0-0---0-0-0-0-0-0---0-0---0---0-0-0---0-0-0-0-0-0---0-0---|
G#-|-6---6-6-6---6-6-6-6-6-8---8-8---6---6-6-6---6-6-6-6-6-8---8-8---|
E--|-5---5-5-5---5-5-5-5-5-7---7-7---5---5-5-5---5-5-5-5-5-7---7-7---|
B--|-3---3-3-3---3-3-3-3-3-0---0-0---3---3-3-3---3-3-3-3-3-0---0-0---|
E--|-----------------------0---0-0-------------------------0---0-0---|

         and all the choices...          won't end up...



Chorus

e--|---------0---0-0---0-0-0---0-0-0---------0---0-0---0-0-0---0-0-0-|
B--|---------5---5-5---5-5-0---0-0-0---------5---5-5---5-5-0---0-0-0-|
G#-|---------5---5-5---5-5-8---8-8-8---------5---5-5---5-5-8---8-8-8-|
E--|---------4---4-4---4-4-7---7-7-7---------4---4-4---5-5-7---7-7-7-|
B--|-0h2-----2---2-2---2-2-5---5-5-0-0h2-----2---2-2---2-2-5---5-5-0-|
E--|-0h2-----2---2-2---2-2-5---5-5-0-0h2-----2---2-2---2-2-5---5-5-0-|

           Show me what it's for...        Make me..

e--|-0---0-0-0---0-0-0-0-0-0---0-0---0---0-0-0---0-0-0-0-0-0---0-0---|
B--|-0---0-0-0---0-0-0-0-0-0---0-0---0---0-0-0---0-0-0-0-0-0---0-0---|
G#-|-6---6-6-6---6-6-6-6-6-8---8-8---6---6-6-6---6-6-6-6-6-8---8-8---|
E--|-5---5-5-5---5-5-5-5-5-7---7-7---5---5-5-5---5-5-5-5-5-7---7-7---|
B--|-3---3-3-3---3-3-3-3-3-0---0-0---3---3-3-3---3-3-3-3-3-0---0-0---|
E--|-----------------------0---0-0-------------------------0---0-0---|

         'Cause I've been...             Looking for...

e--|---------0---0-0---0-0-0---0-0-0---------0---0-0---0-0-0---0-0-0-|
B--|---------5---5-5---5-5-0---0-0-0---------5---5-5---5-5-0---0-0-0-|
G#-|---------5---5-5---5-5-8---8-8-8---------5---5-5---5-5-8---8-8-8-|
E--|---------4---4-4---4-4-7---7-7-7---------4---4-4---5-5-7---7-7-7-|
B--|-0h2-----2---2-2---2-2-5---5-5-0-0h2-----2---2-2---2-2-5---5-5-0-|
E--|-0h2-----2---2-2---2-2-5---5-5-0-0h2-----2---2-2---2-2-5---5-5-0-|

           Is there something more...        Than what I've been..

e--|-0---0-0-0---0-0-0-0-0-0---0-0---0---0-0-0---0-0-0-0-0-0---0-0---|
B--|-0---0-0-0---0-0-0-0-0-0---0-0---0---0-0-0---0-0-0-0-0-0---0-0---|
G#-|-6---6-6-6---6-6-6-6-6-8---8-8---6---6-6-6---6-6-6-6-6-8---8-8---|
E--|-5---5-5-5---5-5-5-5-5-7---7-7---5---5-5-5---5-5-5-5-5-7---7-7---|
B--|-3---3-3-3---3-3-3-3-3-0---0-0---3---3-3-3---3-3-3-3-3-0---0-0---|
E--|-----------------------0---0-0-------------------------0---0-0---|

          I've been...                   Looking for...


Bridge
[ Tab from: http://www.guitartabs.cc/tabs/h/hoobastank/crawling_in_the_dark_acoustic_tab_ver_2.html ]
e--|-0-0-----0-0-0-0-----0---0-0-0-0-0-0-----0-0-0-0-----0-----0-0-0-|
B--|-5-5-----5-5-5-5-----5---5-5-5-5-5-5-----5-5-5-5-----0-----0-0-0-|
G#-|-5-5-----5-5-5-5-----5---5-5-5-5-5-5-----5-5-5-5-----6-----6-6-6-|
E--|-4-4-----4-4-4-4-----4---4-4-4-4-4-4-----4-4-4-4-----5-----5-5-5-| x2
B--|-0h2-----2-2-0h2-----2---2-2-2-2-0h2-----2-2-0h2-----3-----3-3-3-|
E--|-0h2-----2-2-0h2-----2---2-2-2-2-0h2-----2-2-0h2-----------------|

e--|-0-----0---0-0-----0---0-0-0-0---0-----0---0-0-----0-0-0-0-0-0---|
B--|-0-----0---0-0-----0---0-0-0-0---0-----0---0-5-----5-5-5-5-5-5---|
G#-|-6-----6---6-6-----6---6-6-6-6---8-----8---8-5-----5-5-5-5-5-5---|
E--|-5-----5---5-5-----5---5-5-5-5---7-----7---7-4-----4-4-4-4-4-4---|
B--|-3-----3---3-3-----3---3-3-3-3---0-----0---0-2-----2-2-2-2-2-2---|
E--|---------------------------------0-----0---0-2-----2-2-2-2-2-2---|

           How much further...

e--|-0-----0---0-0-----0---0-0-0-0---0-----0---0-0-----0---0-0-0-0---|
B--|-0-----0---0-0-----0---0-0-0-0---0-----0---0-0-----0---0-0-0-0---|
G#-|-6-----6---6-6-----6---6-6-6-6---8-----8---8-8-----8---8-8-8-8---|
E--|-5-----5---5-5-----5---5-5-5-5---7-----7---7-7-----7---7-7-7-7---|
B--|-3-----3---3-3-----3---3-3-3-3---5-----5---5-0-----0---0-0-0-0---|
E--|---------------------------------5-----5---5-0-----0---0-0-0-0---|

           How much longer...        finally     know?

e--|-0-----0---0-0-----0---0-0-0-0---0-----0---0-0-----0---0-0-0-0---|
B--|-0-----0---0-0-----0---0-0-0-0---0-----0---0-5-----5---5-5-5-5---|
G#-|-6-----6---6-6-----6---6-6-6-6---8-----8---8-5-----5---5-5-5-5---|
E--|-5-----5---5-5-----5---5-5-5-5---7-----7---7-4-----4---4-4-4-4---|
B--|-3-----3---3-3-----3---3-3-3-3---5-----5---5-2-----2---2-2-2-2---|
E--|---------------------------------5-----5---5-2-----2---2-2-2-2---|

           'Cause I'm looking...     just can't   see...

e--|-0-----0---0-0-----0---0-0-0-0---0-----0---0-0-----0---0-0-0-0---|
B--|-0-----0---0-0-----0---0-0-0-0---0-----0---0-0-----0---0-0-0-0---|
G#-|-6-----6---6-6-----6---6-6-6-6---0-----0---0-0-----0---0-0-0-0---|
E--|-5-----5---5-5-----5---5-5-5-5---0-----0---0-0-----0---0-0-0-0---|
B--|-3-----3---3-3-----3---3-3-3-3---0-----0---0-0-----0---0-0-0-0---|
E--|---------------------------------0-----0---0-0-----0---0-0-0-0---|

     front of me....                 In front of me.


Chorus (with intro)

e--|---------------------------------|
B--|-------2---3---2-----------------|
G#-|-------------------1---0---------|
E--|---------------------------------|  x2
B--|-0h2-2---2---2---2---2-----0---0-|
E--|-0h2-2---2---2---2---2-----0---0-|

     Show me what its for....

e--|-0---0-0-0---0-0-0-0-0-0---0-0---0---0-0-0---0-0-0-0-0-0---0-0---|
B--|-0---0-0-0---0-0-0-0-0-0---0-0---0---0-0-0---0-0-0-0-0-0---0-0---|
G#-|-6---6-6-6---6-6-6-6-6-8---8-8---6---6-6-6---6-6-6-6-6-8---8-8---|
E--|-5---5-5-5---5-5-5-5-5-7---7-7---5---5-5-5---5-5-5-5-5-7---7-7---|
B--|-3---3-3-3---3-3-3-3-3-0---0-0---3---3-3-3---3-3-3-3-3-0---0-0---|
E--|-----------------------0---0-0-------------------------0---0-0---|

     I've been crawling....          dark, looking....

e--|---------0---0-0---0-0-0---0-0-0---------0---0-0---0-0-0---0-0-0-|
B--|---------5---5-5---5-5-0---0-0-0---------5---5-5---5-5-0---0-0-0-|
G#-|---------5---5-5---5-5-8---8-8-8---------5---5-5---5-5-8---8-8-8-|
E--|---------4---4-4---4-4-7---7-7-7---------4---4-4---5-5-7---7-7-7-|
B--|-0h2-----2---2-2---2-2-5---5-5-0-0h2-----2---2-2---2-2-5---5-5-0-|
E--|-0h2-----2---2-2---2-2-5---5-5-0-0h2-----2---2-2---2-2-5---5-5-0-|

           Is there something more...        Than what I've been..

e--|-0---0-0-0---0-0-0-0-0-0---0-0---0---0-0-0---0-0-0-0-0-0---0-0---|
B--|-0---0-0-0---0-0-0-0-0-0---0-0---0---0-0-0---0-0-0-0-0-0---0-0---|
G#-|-6---6-6-6---6-6-6-6-6-8---8-8---6---6-6-6---6-6-6-6-6-8---8-8---|
E--|-5---5-5-5---5-5-5-5-5-7---7-7---5---5-5-5---5-5-5-5-5-7---7-7---|
B--|-3---3-3-3---3-3-3-3-3-0---0-0---3---3-3-3---3-3-3-3-3-0---0-0---|
E--|-----------------------0---0-0-------------------------0---0-0---|

          I've been...                   Looking for...


Outro

e--|-0-0-----0---0-0---0-0-0-0-0-0-0-|
B--|-5-5-----5---5-5---0-0-0-0-0-0-0-|
G#-|-5-5-----5---5-5---8-8-8-^-8-7-7-|
E--|-4-4-----4---4-4---7-7-7-7-7-7-7-| x3
B--|-0h2-----2---2-2---5-5-5-5p0-0-0-|
E--|-0h2-----2---2-2---5-5-5-5p0-0-0-|
                          

e--|-0-0-----0---0-0---0-0-0-0-------||
B--|-5-5-----5---5-5---0-0-0-0-------||
G#-|-5-5-----5---5-5---8-8-8-8-------||
E--|-4-4-----4---4-4---7-7-7-7-------||
B--|-0h2-----2---2-2---5-5-5-5-------||
E--|-0h2-----2---2-2---5-5-5-5-------||

| /  slide up
| \  slide down
| h  hammer-on
| p  pull-off
| ~  vibrato
| +  harmonic
| x  Mute note
===============================================================================
Comments