Hoobastank - Connected Chords & Tabs

 

Connected Chords & Tabs

Hoobastank Chords & Tabs

Version: 1 Type: Tab 0 ratings
1 star 2 stars 3 stars 4 stars 5 stars
comments

Connected Tab

   
Band - Hoobastank
Song - Connected
Album - Halo 2 Soundtrack
Tuning - Standard


Intro/Verse

"No One Else..."
e:---------------------------------:
b:---------------------------------:
g:---------------------------------:  Palm Muted
d:---------------------------------:
a:---7-7---7-7---7-7---7-7-7-7-7-7-:
E:-0-----0-----0-----0-----0-0-0-0-:


Pre-Chorus 1  (22 secs)

"We are Connected..."

e:----------------------------------------------:
b:----------------------------------------------:
g:------------------7---------------------------:
d:-10-------7-------7---------10-------12-------:
a:-10--x12--7--x6---5--x--8---10--x12--12--x16--:
E:-8--------5-----------------8--------10-------:


Verse

Pre-Chorus

Chorus

"We Walk Together, Forever Down That Road..." (2.08 Secs)
[ Tab from: http://www.guitartabs.cc/tabs/h/hoobastank/connected_tab.html ]
e:--------------------------:
b:--------------------------:
g:--------------------------:
d:-10-------12------13------:
a:-10--x12--12--x8--13--x8--:
E:-8--------10------11------:


Chorus Part 2  (1.10 Secs)

"Roooowooooooooo"

e:-------------------------------------------------|
b:-------------------------------------------------|
g:---5-7---------5-7---------5-7---------5-7-------|
d:-2-5-7-x-x-x-2-5-7-x-x-x-2-5-7-x-x-x-2-5-7-x-x-x-|
a:-2-3-5-x-x-x-2-3-5-x-x-x-2-3-5-x-x-x-2-3-5-x-x-x-|
E:-0-----x-x-x-0-----x-x-x-0-----x-x-x-0-----x-x-x-|


Bridge

"So If you fall Behind.."

e:-------------------------------------------------:
b:-------------------------------------------------:
g:-----------------7-------------------------------:
d:-10-------9------7--x6--10-------12------13------:
a:-10--x16--9--x6--5------10--x16--12--x6--13--x6--:
E:-8--------7-------------8--------10------11------:


Verse

Pre-Chorus

Chorus x 2

There You Go

Any Suggestions...Doms_BeerCo@Hotmail.com
Comments